  0
SECTION
  2
HEADER
  9
$ACADVER
  1
AC1014
  9
$ACADMAINTVER
 70
     9
  9
$DWGCODEPAGE
  3
ANSI_1252
  9
$INSBASE
 10
0.0
 20
0.0
 30
0.0
  9
$EXTMIN
 10
22556.06726223459
 20
2059.03386007548
 30
0.0
  9
$EXTMAX
 10
28456.0672622346
 20
7769.663872458601
 30
0.0
  9
$LIMMIN
 10
0.0
 20
0.0
  9
$LIMMAX
 10
12.0
 20
9.0
  9
$ORTHOMODE
 70
     0
  9
$REGENMODE
 70
     1
  9
$FILLMODE
 70
     1
  9
$QTEXTMODE
 70
     0
  9
$MIRRTEXT
 70
     1
  9
$DRAGMODE
 70
     2
  9
$LTSCALE
 40
1.0
  9
$OSMODE
 70
    37
  9
$ATTMODE
 70
     1
  9
$TEXTSIZE
 40
0.2
  9
$TRACEWID
 40
0.05
  9
$TEXTSTYLE
  7
STANDARD
  9
$CLAYER
  8
0
  9
$CELTYPE
  6
BYLAYER
  9
$CECOLOR
 62
   256
  9
$CELTSCALE
 40
1.0
  9
$DELOBJ
 70
     1
  9
$DISPSILH
 70
     0
  9
$DIMSCALE
 40
1.0
  9
$DIMASZ
 40
0.18
  9
$DIMEXO
 40
0.0625
  9
$DIMDLI
 40
0.38
  9
$DIMRND
 40
0.0
  9
$DIMDLE
 40
0.0
  9
$DIMEXE
 40
0.18
  9
$DIMTP
 40
0.0
  9
$DIMTM
 40
0.0
  9
$DIMTXT
 40
0.18
  9
$DIMCEN
 40
0.09
  9
$DIMTSZ
 40
0.0
  9
$DIMTOL
 70
     0
  9
$DIMLIM
 70
     0
  9
$DIMTIH
 70
     1
  9
$DIMTOH
 70
     1
  9
$DIMSE1
 70
     0
  9
$DIMSE2
 70
     0
  9
$DIMTAD
 70
     0
  9
$DIMZIN
 70
     0
  9
$DIMBLK
  1

  9
$DIMASO
 70
     1
  9
$DIMSHO
 70
     1
  9
$DIMPOST
  1

  9
$DIMAPOST
  1

  9
$DIMALT
 70
     0
  9
$DIMALTD
 70
     2
  9
$DIMALTF
 40
25.4
  9
$DIMLFAC
 40
1.0
  9
$DIMTOFL
 70
     0
  9
$DIMTVP
 40
0.0
  9
$DIMTIX
 70
     0
  9
$DIMSOXD
 70
     0
  9
$DIMSAH
 70
     0
  9
$DIMBLK1
  1

  9
$DIMBLK2
  1

  9
$DIMSTYLE
  2
STANDARD
  9
$DIMCLRD
 70
     0
  9
$DIMCLRE
 70
     0
  9
$DIMCLRT
 70
     0
  9
$DIMTFAC
 40
1.0
  9
$DIMGAP
 40
0.09
  9
$DIMJUST
 70
     0
  9
$DIMSD1
 70
     0
  9
$DIMSD2
 70
     0
  9
$DIMTOLJ
 70
     1
  9
$DIMTZIN
 70
     0
  9
$DIMALTZ
 70
     0
  9
$DIMALTTZ
 70
     0
  9
$DIMFIT
 70
     3
  9
$DIMUPT
 70
     0
  9
$DIMUNIT
 70
     2
  9
$DIMDEC
 70
     4
  9
$DIMTDEC
 70
     4
  9
$DIMALTU
 70
     2
  9
$DIMALTTD
 70
     2
  9
$DIMTXSTY
  7
STANDARD
  9
$DIMAUNIT
 70
     0
  9
$LUNITS
 70
     2
  9
$LUPREC
 70
     4
  9
$SKETCHINC
 40
0.1
  9
$FILLETRAD
 40
0.5
  9
$AUNITS
 70
     0
  9
$AUPREC
 70
     0
  9
$MENU
  1
.
  9
$ELEVATION
 40
0.0
  9
$PELEVATION
 40
0.0
  9
$THICKNESS
 40
0.0
  9
$LIMCHECK
 70
     0
  9
$CHAMFERA
 40
0.5
  9
$CHAMFERB
 40
0.5
  9
$CHAMFERC
 40
1.0
  9
$CHAMFERD
 40
0.0
  9
$SKPOLY
 70
     0
  9
$TDCREATE
 40
2456249.636413391
  9
$TDUPDATE
 40
2456249.636413403
  9
$TDINDWG
 40
0.0000000116
  9
$TDUSRTIMER
 40
0.0000000116
  9
$USRTIMER
 70
     1
  9
$ANGBASE
 50
0.0
  9
$ANGDIR
 70
     0
  9
$PDMODE
 70
     0
  9
$PDSIZE
 40
0.0
  9
$PLINEWID
 40
0.0
  9
$COORDS
 70
     1
  9
$SPLFRAME
 70
     0
  9
$SPLINETYPE
 70
     6
  9
$SPLINESEGS
 70
     8
  9
$ATTDIA
 70
     0
  9
$ATTREQ
 70
     1
  9
$HANDLING
 70
     1
  9
$HANDSEED
  5
206
  9
$SURFTAB1
 70
     6
  9
$SURFTAB2
 70
     6
  9
$SURFTYPE
 70
     6
  9
$SURFU
 70
     6
  9
$SURFV
 70
     6
  9
$UCSNAME
  2

  9
$UCSORG
 10
0.0
 20
0.0
 30
0.0
  9
$UCSXDIR
 10
1.0
 20
0.0
 30
0.0
  9
$UCSYDIR
 10
0.0
 20
1.0
 30
0.0
  9
$PUCSNAME
  2

  9
$PUCSORG
 10
0.0
 20
0.0
 30
0.0
  9
$PUCSXDIR
 10
1.0
 20
0.0
 30
0.0
  9
$PUCSYDIR
 10
0.0
 20
1.0
 30
0.0
  9
$USERI1
 70
     0
  9
$USERI2
 70
     0
  9
$USERI3
 70
     0
  9
$USERI4
 70
     0
  9
$USERI5
 70
     0
  9
$USERR1
 40
16.0
  9
$USERR2
 40
0.0
  9
$USERR3
 40
0.0
  9
$USERR4
 40
0.0
  9
$USERR5
 40
0.0
  9
$WORLDVIEW
 70
     1
  9
$SHADEDGE
 70
     3
  9
$SHADEDIF
 70
    70
  9
$TILEMODE
 70
     1
  9
$MAXACTVP
 70
    64
  9
$PINSBASE
 10
0.0
 20
0.0
 30
0.0
  9
$PLIMCHECK
 70
     0
  9
$PEXTMIN
 10
1.00000000000000E+20
 20
1.00000000000000E+20
 30
1.00000000000000E+20
  9
$PEXTMAX
 10
-1.00000000000000E+20
 20
-1.00000000000000E+20
 30
-1.00000000000000E+20
  9
$PLIMMIN
 10
0.0
 20
0.0
  9
$PLIMMAX
 10
12.0
 20
9.0
  9
$UNITMODE
 70
     0
  9
$VISRETAIN
 70
     1
  9
$PLINEGEN
 70
     0
  9
$PSLTSCALE
 70
     1
  9
$TREEDEPTH
 70
  3020
  9
$PICKSTYLE
 70
     1
  9
$CMLSTYLE
  2
STANDARD
  9
$CMLJUST
 70
     0
  9
$CMLSCALE
 40
1.0
  9
$PROXYGRAPHICS
 70
     1
  9
$MEASUREMENT
 70
     1
  0
ENDSEC
  0
SECTION
  2
CLASSES
  0
CLASS
  1
ACDBDICTIONARYWDFLT
  2
AcDbDictionaryWithDefault
  3
ObjectDBX Classes
 90
        0
280
     0
281
     0
  0
CLASS
  1
VISUALSTYLE
  2
AcDbVisualStyle
  3
ObjectDBX Classes
 90
     4095
280
     0
281
     0
  0
CLASS
  1

  2
exOdDbCircle
  3

 90
        0
280
     0
281
     1
  0
CLASS
  1
XRECORD
  2
AcDbXrecord
  3
AutoCAD 2000
 90
        0
280
     0
281
     0
  0
CLASS
  1
LWPOLYLINE
  2
AcDbPolyline
  3
AutoCAD 2000
 90
        0
280
     0
281
     1
  0
CLASS
  1
HATCH
  2
AcDbHatch
  3
AutoCAD 2000
 90
        0
280
     0
281
     1
  0
CLASS
  1
ACDBPLACEHOLDER
  2
AcDbPlaceHolder
  3
ObjectDBX Classes
 90
        0
280
     0
281
     0
  0
CLASS
  1
LAYOUT
  2
AcDbLayout
  3
ObjectDBX Classes
 90
        0
280
     0
281
     0
  0
ENDSEC
  0
SECTION
  2
TABLES
  0
TABLE
  2
VPORT
  5
8
330
0
100
AcDbSymbolTable
 70
     1
  0
VPORT
  5
29
330
8
100
AcDbSymbolTableRecord
100
AcDbViewportTableRecord
  2
*ACTIVE
 70
     0
 10
0.0
 20
0.0
 11
1.0
 21
1.0
 12
25506.0672622346
 22
4914.348866267041
 13
0.0
 23
0.0
 14
0.5
 24
0.5
 15
0.5
 25
0.5
 16
0.0
 26
0.0
 36
1.0
 17
0.0
 27
0.0
 37
0.0
 40
6281.693013621433
 41
1.60267857142857
 42
50.0
 43
0.0
 44
0.0
 50
0.0
 51
0.0
 71
     0
 72
   100
 73
     1
 74
     3
 75
     0
 76
     0
 77
     0
 78
     0
  0
ENDTAB
  0
TABLE
  2
LTYPE
  5
5
330
0
100
AcDbSymbolTable
 70
     8
  0
LTYPE
  5
14
330
5
100
AcDbSymbolTableRecord
100
AcDbLinetypeTableRecord
  2
BYBLOCK
 70
     0
  3

 72
    65
 73
     0
 40
0.0
  0
LTYPE
  5
15
330
5
100
AcDbSymbolTableRecord
100
AcDbLinetypeTableRecord
  2
BYLAYER
 70
     0
  3

 72
    65
 73
     0
 40
0.0
  0
LTYPE
  5
16
330
5
100
AcDbSymbolTableRecord
100
AcDbLinetypeTableRecord
  2
CONTINUOUS
 70
     0
  3
Solid line
 72
    65
 73
     0
 40
0.0
  0
LTYPE
  5
3B
330
5
100
AcDbSymbolTableRecord
100
AcDbLinetypeTableRecord
  2
DASHED
 70
     0
  3
Dashed
 72
    65
 73
     2
 40
15.0
 49
7.0
 74
     0
 49
-8.0
 74
     0
  0
LTYPE
  5
3C
330
5
100
AcDbSymbolTableRecord
100
AcDbLinetypeTableRecord
  2
DOTTED
 70
     0
  3
Dotted
 72
    65
 73
     2
 40
1.0
 49
0.0
 74
     0
 49
-1.0
 74
     0
  0
LTYPE
  5
3D
330
5
100
AcDbSymbolTableRecord
100
AcDbLinetypeTableRecord
  2
DOT_CENTER
 70
     0
  3
Dot_Center
 72
    65
 73
     4
 40
14.0
 49
12.0
 74
     0
 49
-1.0
 74
     0
 49
0.0
 74
     0
 49
-1.0
 74
     0
  0
LTYPE
  5
3E
330
5
100
AcDbSymbolTableRecord
100
AcDbLinetypeTableRecord
  2
LONG_DASHED
 70
     0
  3
Long_Dashed
 72
    65
 73
     2
 40
15.0
 49
10.0
 74
     0
 49
-5.0
 74
     0
  0
LTYPE
  5
3F
330
5
100
AcDbSymbolTableRecord
100
AcDbLinetypeTableRecord
  2
DASH_CENTER
 70
     0
  3
Dash_Center
 72
    65
 73
     4
 40
14.0
 49
11.0
 74
     0
 49
-1.0
 74
     0
 49
1.0
 74
     0
 49
-1.0
 74
     0
  0
LTYPE
  5
40
330
5
100
AcDbSymbolTableRecord
100
AcDbLinetypeTableRecord
  2
PHANTOM
 70
     0
  3
Phantom
 72
    65
 73
     6
 40
13.0
 49
10.0
 74
     0
 49
-1.0
 74
     0
 49
0.0
 74
     0
 49
-1.0
 74
     0
 49
0.0
 74
     0
 49
-1.0
 74
     0
  0
LTYPE
  5
41
330
5
100
AcDbSymbolTableRecord
100
AcDbLinetypeTableRecord
  2
CENTER_DASH_DASH
 70
     0
  3
Center_Dash_Dash
 72
    65
 73
     6
 40
14.0
 49
9.0
 74
     0
 49
-1.0
 74
     0
 49
1.0
 74
     0
 49
-1.0
 74
     0
 49
1.0
 74
     0
 49
-1.0
 74
     0
  0
ENDTAB
  0
TABLE
  2
LAYER
  5
2
330
0
100
AcDbSymbolTable
 70
     3
  0
LAYER
  5
10
330
2
100
AcDbSymbolTableRecord
100
AcDbLayerTableRecord
  2
0
 70
     0
 62
     7
  6
CONTINUOUS
  0
LAYER
  5
42
330
2
100
AcDbSymbolTableRecord
100
AcDbLayerTableRecord
  2
1
 70
     0
 62
     7
  6
CONTINUOUS
  0
LAYER
  5
43
330
2
100
AcDbSymbolTableRecord
100
AcDbLayerTableRecord
  2
POS
 70
     0
 62
     7
  6
CONTINUOUS
  0
ENDTAB
  0
TABLE
  2
STYLE
  5
3
330
0
100
AcDbSymbolTable
 70
     1
  0
STYLE
  5
11
330
3
100
AcDbSymbolTableRecord
100
AcDbTextStyleTableRecord
  2
STANDARD
 70
     0
 40
0.0
 41
1.0
 50
0.0
 71
     0
 42
0.2
  3
txt
  4

  0
ENDTAB
  0
TABLE
  2
VIEW
  5
6
330
0
100
AcDbSymbolTable
 70
     0
  0
ENDTAB
  0
TABLE
  2
UCS
  5
7
330
0
100
AcDbSymbolTable
 70
     0
  0
ENDTAB
  0
TABLE
  2
APPID
  5
9
330
0
100
AcDbSymbolTable
 70
     1
  0
APPID
  5
12
330
9
100
AcDbSymbolTableRecord
100
AcDbRegAppTableRecord
  2
ACAD
 70
     0
  0
ENDTAB
  0
TABLE
  2
DIMSTYLE
  5
A
330
0
100
AcDbSymbolTable
 70
     1
  0
DIMSTYLE
105
27
330
A
100
AcDbSymbolTableRecord
100
AcDbDimStyleTableRecord
  2
STANDARD
 70
     0
  3

  4

  5

  6

  7

 40
1.0
 41
0.18
 42
0.0625
 43
0.38
 44
0.18
 45
0.0
 46
0.0
 47
0.0
 48
0.0
140
0.18
141
0.09
142
0.0
143
25.4
144
1.0
145
0.0
146
1.0
147
0.09
 71
     0
 72
     0
 73
     1
 74
     1
 75
     0
 76
     0
 77
     0
 78
     0
170
     0
171
     2
172
     0
173
     0
174
     0
175
     0
176
     0
177
     0
178
     0
270
     2
271
     4
272
     4
273
     2
274
     2
340
11
275
     0
280
     0
281
     0
282
     0
283
     1
284
     0
285
     0
286
     0
287
     3
288
     0
  0
ENDTAB
  0
TABLE
  2
BLOCK_RECORD
  5
1
330
0
100
AcDbSymbolTable
 70
     1
  0
BLOCK_RECORD
  5
1F
330
1
100
AcDbSymbolTableRecord
100
AcDbBlockTableRecord
  2
*MODEL_SPACE
  0
BLOCK_RECORD
  5
1B
330
1
100
AcDbSymbolTableRecord
100
AcDbBlockTableRecord
  2
*PAPER_SPACE
  0
ENDTAB
  0
ENDSEC
  0
SECTION
  2
BLOCKS
  0
BLOCK
  5
20
330
1F
100
AcDbEntity
  8
0
100
AcDbBlockBegin
  2
*MODEL_SPACE
 70
     0
 10
0.0
 20
0.0
 30
0.0
  3
*MODEL_SPACE
  1

  0
ENDBLK
  5
21
330
1F
100
AcDbEntity
  8
0
100
AcDbBlockEnd
  0
BLOCK
  5
1C
330
1B
100
AcDbEntity
 67
     1
  8
0
100
AcDbBlockBegin
  2
*PAPER_SPACE
 70
     0
 10
0.0
 20
0.0
 30
0.0
  3
*PAPER_SPACE
  1

  0
ENDBLK
  5
1D
330
1B
100
AcDbEntity
 67
     1
  8
0
100
AcDbBlockEnd
  0
ENDSEC
  0
SECTION
  2
ENTITIES
  0
POINT
  5
44
330
1F
100
AcDbEntity
  8
1
 62
     3
100
AcDbPoint
 10
27715.26902627404
 20
3334.8828568464
 30
0.0
  0
LINE
  5
45
330
1F
100
AcDbEntity
  8
1
  6
CONTINUOUS
 62
     2
100
AcDbLine
 10
22806.06726223459
 20
2119.663872458601
 30
0.0
 11
23306.06726223459
 21
2109.66386007548
 31
0.0
  0
LINE
  5
46
330
1F
100
AcDbEntity
  8
1
  6
CONTINUOUS
 62
     2
100
AcDbLine
 10
23306.06726223459
 20
2059.03386007548
 30
0.0
 11
23306.06726223459
 21
2109.66386007548
 31
0.0
  0
LINE
  5
47
330
1F
100
AcDbEntity
  8
1
  6
CONTINUOUS
 62
     2
100
AcDbLine
 10
23306.06726223459
 20
2059.03386007548
 30
0.0
 11
23406.06726223459
 21
2059.03386007548
 31
0.0
  0
LINE
  5
48
330
1F
100
AcDbEntity
  8
1
  6
CONTINUOUS
 62
     2
100
AcDbLine
 10
23406.06726223459
 20
2079.03386007548
 30
0.0
 11
23406.06726223459
 21
2059.03386007548
 31
0.0
  0
LINE
  5
49
330
1F
100
AcDbEntity
  8
1
  6
CONTINUOUS
 62
     2
100
AcDbLine
 10
23406.06726223459
 20
2079.03386007548
 30
0.0
 11
28106.06726223459
 21
2169.663872458601
 31
0.0
  0
LINE
  5
4A
330
1F
100
AcDbEntity
  8
1
  6
CONTINUOUS
 62
     2
100
AcDbLine
 10
28206.0672622346
 20
4119.663872458601
 30
0.0
 11
28456.0672622346
 21
4119.663872458601
 31
0.0
  0
LINE
  5
4B
330
1F
100
AcDbEntity
  8
1
  6
CONTINUOUS
 62
     2
100
AcDbLine
 10
28206.0672622346
 20
4119.663872458601
 30
0.0
 11
28206.0672622346
 21
4019.663872458601
 31
0.0
  0
LINE
  5
4C
330
1F
100
AcDbEntity
  8
1
  6
CONTINUOUS
 62
     2
100
AcDbLine
 10
22806.06726223459
 20
4119.6638724586
 30
0.0
 11
28206.0672622346
 21
4119.663872458601
 31
0.0
  0
LINE
  5
4D
330
1F
100
AcDbEntity
  8
1
  6
CONTINUOUS
 62
     2
100
AcDbLine
 10
22556.06726223459
 20
4119.6638724586
 30
0.0
 11
22806.06726223459
 21
4119.6638724586
 31
0.0
  0
LINE
  5
4E
330
1F
100
AcDbEntity
  8
1
  6
CONTINUOUS
 62
     3
100
AcDbLine
 10
23730.55792668403
 20
5058.420643413592
 30
0.0
 11
23696.07595135142
 21
5063.904604306678
 31
0.0
  0
LINE
  5
4F
330
1F
100
AcDbEntity
  8
1
  6
CONTINUOUS
 62
     3
100
AcDbLine
 10
23763.80845985511
 20
5070.708694006328
 30
0.0
 11
23730.55792668403
 21
5058.420643413592
 31
0.0
  0
LINE
  5
50
330
1F
100
AcDbEntity
  8
1
  6
CONTINUOUS
 62
     3
100
AcDbLine
 10
23782.25108059007
 20
5088.746345677381
 30
0.0
 11
23763.80845985511
 21
5070.708694006328
 31
0.0
  0
LINE
  5
51
330
1F
100
AcDbEntity
  8
1
  6
CONTINUOUS
 62
     3
100
AcDbLine
 10
23837.06873126734
 20
5213.112325923515
 30
0.0
 11
23782.25108059007
 21
5088.746345677381
 31
0.0
  0
LINE
  5
52
330
1F
100
AcDbEntity
  8
1
  6
CONTINUOUS
 62
     3
100
AcDbLine
 10
23903.42357386723
 20
5332.312554965564
 30
0.0
 11
23837.06873126734
 21
5213.112325923515
 31
0.0
  0
LINE
  5
53
330
1F
100
AcDbEntity
  8
1
  6
CONTINUOUS
 62
     3
100
AcDbLine
 10
23994.94128038727
 20
5468.922499317242
 30
0.0
 11
23903.42357386723
 21
5332.312554965564
 31
0.0
  0
LINE
  5
54
330
1F
100
AcDbEntity
  8
1
  6
CONTINUOUS
 62
     3
100
AcDbLine
 10
24007.59540327071
 20
5489.509857043892
 30
0.0
 11
23994.94128038727
 21
5468.922499317242
 31
0.0
  0
LINE
  5
55
330
1F
100
AcDbEntity
  8
1
  6
CONTINUOUS
 62
     3
100
AcDbLine
 10
24007.52534394424
 20
5507.597521831446
 30
0.0
 11
24007.59540327071
 21
5489.509857043892
 31
0.0
  0
LINE
  5
56
330
1F
100
AcDbEntity
  8
1
  6
CONTINUOUS
 62
     3
100
AcDbLine
 10
23979.54211230069
 20
5544.042648915697
 30
0.0
 11
24007.52534394424
 21
5507.597521831446
 31
0.0
  0
LINE
  5
57
330
1F
100
AcDbEntity
  8
1
  6
CONTINUOUS
 62
     3
100
AcDbLine
 10
25613.0276891773
 20
4784.121956240027
 30
0.0
 11
25630.07432437738
 21
5244.929690894439
 31
0.0
  0
LINE
  5
58
330
1F
100
AcDbEntity
  8
1
  6
CONTINUOUS
 62
     3
100
AcDbLine
 10
25587.66164398402
 20
4520.694610119814
 30
0.0
 11
25613.0276891773
 21
4784.121956240027
 31
0.0
  0
LINE
  5
59
330
1F
100
AcDbEntity
  8
1
  6
CONTINUOUS
 62
     3
100
AcDbLine
 10
25587.66164398402
 20
4520.694610119814
 30
0.0
 11
25550.96163585543
 21
4526.089959456403
 31
0.0
  0
LINE
  5
5A
330
1F
100
AcDbEntity
  8
1
  6
CONTINUOUS
 62
     3
100
AcDbLine
 10
25570.07295243764
 20
4383.735177628606
 30
0.0
 11
25587.66164398402
 21
4520.694610119814
 31
0.0
  0
LINE
  5
5B
330
1F
100
AcDbEntity
  8
1
  6
CONTINUOUS
 62
     3
100
AcDbLine
 10
25526.99449653461
 20
4110.50257391015
 30
0.0
 11
25505.55787121714
 21
4113.538817678442
 31
0.0
  0
LINE
  5
5C
330
1F
100
AcDbEntity
  8
1
  6
CONTINUOUS
 62
     3
100
AcDbLine
 10
25526.99449653461
 20
4110.50257391015
 30
0.0
 11
25570.07295243764
 21
4383.735177628606
 31
0.0
  0
LINE
  5
5D
330
1F
100
AcDbEntity
  8
1
  6
CONTINUOUS
 62
     3
100
AcDbLine
 10
24735.47541845801
 20
4114.503866789329
 30
0.0
 11
24710.41279793131
 21
4118.36337119884
 31
0.0
  0
LINE
  5
5E
330
1F
100
AcDbEntity
  8
1
  6
CONTINUOUS
 62
     3
100
AcDbLine
 10
24734.18526132549
 20
4191.736925958304
 30
0.0
 11
24735.47541845801
 21
4114.503866789329
 31
0.0
  0
LINE
  5
5F
330
1F
100
AcDbEntity
  8
1
  6
CONTINUOUS
 62
     3
100
AcDbLine
 10
24731.77416142464
 20
4260.74552395354
 30
0.0
 11
24734.18526132549
 21
4191.736925958304
 31
0.0
  0
LINE
  5
60
330
1F
100
AcDbEntity
  8
1
  6
CONTINUOUS
 62
     3
100
AcDbLine
 10
24726.26821614072
 20
4322.110697843382
 30
0.0
 11
24731.77416142464
 21
4260.74552395354
 31
0.0
  0
LINE
  5
61
330
1F
100
AcDbEntity
  8
1
  6
CONTINUOUS
 62
     3
100
AcDbLine
 10
24713.42783482455
 20
4374.409116630716
 30
0.0
 11
24726.26821614072
 21
4322.110697843382
 31
0.0
  0
LINE
  5
62
330
1F
100
AcDbEntity
  8
1
  6
CONTINUOUS
 62
     3
100
AcDbLine
 10
24783.46908206634
 20
4241.334179331225
 30
0.0
 11
24784.29220433793
 21
4215.69754620557
 31
0.0
  0
LINE
  5
63
330
1F
100
AcDbEntity
  8
1
  6
CONTINUOUS
 62
     3
100
AcDbLine
 10
24781.39737258078
 20
4284.039073896222
 30
0.0
 11
24783.46908206634
 21
4241.334179331225
 31
0.0
  0
LINE
  5
64
330
1F
100
AcDbEntity
  8
1
  6
CONTINUOUS
 62
     3
100
AcDbLine
 10
24774.90117606732
 20
4345.543540651559
 30
0.0
 11
24781.39737258078
 21
4284.039073896222
 31
0.0
  0
LINE
  5
65
330
1F
100
AcDbEntity
  8
1
  6
CONTINUOUS
 62
     3
100
AcDbLine
 10
24752.26717297901
 20
4414.367242268069
 30
0.0
 11
24774.90117606732
 21
4345.543540651559
 31
0.0
  0
LINE
  5
66
330
1F
100
AcDbEntity
  8
1
  6
CONTINUOUS
 62
     3
100
AcDbLine
 10
24705.87287447443
 20
4515.319903297393
 30
0.0
 11
24752.26717297901
 21
4414.367242268069
 31
0.0
  0
LINE
  5
67
330
1F
100
AcDbEntity
  8
1
  6
CONTINUOUS
 62
     3
100
AcDbLine
 10
24698.08149892688
 20
4421.894739218603
 30
0.0
 11
24713.42783482455
 21
4374.409116630716
 31
0.0
  0
LINE
  5
68
330
1F
100
AcDbEntity
  8
1
  6
CONTINUOUS
 62
     3
100
AcDbLine
 10
24685.66985149165
 20
4446.369868178648
 30
0.0
 11
24698.08149892688
 21
4421.894739218603
 31
0.0
  0
LINE
  5
69
330
1F
100
AcDbEntity
  8
1
  6
CONTINUOUS
 62
     3
100
AcDbLine
 10
24668.19474868658
 20
4472.546869084035
 30
0.0
 11
24685.66985149165
 21
4446.369868178648
 31
0.0
  0
LINE
  5
6A
330
1F
100
AcDbEntity
  8
1
  6
CONTINUOUS
 62
     3
100
AcDbLine
 10
24646.23768822332
 20
4497.590089176184
 30
0.0
 11
24668.19474868658
 21
4472.546869084035
 31
0.0
  0
LINE
  5
6B
330
1F
100
AcDbEntity
  8
1
  6
CONTINUOUS
 62
     3
100
AcDbLine
 10
24585.60132173601
 20
4541.888294280043
 30
0.0
 11
24588.44407219706
 21
4540.142212231063
 31
0.0
  0
LINE
  5
6C
330
1F
100
AcDbEntity
  8
1
  6
CONTINUOUS
 62
     3
100
AcDbLine
 10
24559.23255899415
 20
4553.660488597784
 30
0.0
 11
24585.60132173601
 21
4541.888294280043
 31
0.0
  0
LINE
  5
6D
330
1F
100
AcDbEntity
  8
1
  6
CONTINUOUS
 62
     3
100
AcDbLine
 10
24527.54778223292
 20
4563.266255730439
 30
0.0
 11
24559.23255899415
 21
4553.660488597784
 31
0.0
  0
LINE
  5
6E
330
1F
100
AcDbEntity
  8
1
  6
CONTINUOUS
 62
     3
100
AcDbLine
 10
24272.5436761026
 20
4591.07061781728
 30
0.0
 11
24308.25664744946
 21
4594.112660794523
 31
0.0
  0
LINE
  5
6F
330
1F
100
AcDbEntity
  8
1
  6
CONTINUOUS
 62
     3
100
AcDbLine
 10
24135.48149439616
 20
4527.24748375516
 30
0.0
 11
24144.20243756239
 21
4533.580321162769
 31
0.0
  0
LINE
  5
70
330
1F
100
AcDbEntity
  8
1
  6
CONTINUOUS
 62
     3
100
AcDbLine
 10
24109.28988117104
 20
4500.861545499385
 30
0.0
 11
24135.48149439616
 21
4527.24748375516
 31
0.0
  0
LINE
  5
71
330
1F
100
AcDbEntity
  8
1
  6
CONTINUOUS
 62
     3
100
AcDbLine
 10
24082.34089913571
 20
4463.994808889786
 30
0.0
 11
24109.28988117104
 21
4500.861545499385
 31
0.0
  0
LINE
  5
72
330
1F
100
AcDbEntity
  8
1
  6
CONTINUOUS
 62
     3
100
AcDbLine
 10
24017.71580858585
 20
4364.76282771744
 30
0.0
 11
24082.34089913571
 21
4463.994808889786
 31
0.0
  0
LINE
  5
73
330
1F
100
AcDbEntity
  8
1
  6
CONTINUOUS
 62
     3
100
AcDbLine
 10
23957.9369492846
 20
4272.972246223288
 30
0.0
 11
24017.71580858585
 21
4364.76282771744
 31
0.0
  0
LINE
  5
74
330
1F
100
AcDbEntity
  8
1
  6
CONTINUOUS
 62
     3
100
AcDbLine
 10
23937.88043768374
 20
4234.211637473326
 30
0.0
 11
24049.74747755534
 21
4217.020094958056
 31
0.0
  0
LINE
  5
75
330
1F
100
AcDbEntity
  8
1
  6
CONTINUOUS
 62
     3
100
AcDbLine
 10
23937.88043768374
 20
4234.211637473326
 30
0.0
 11
23957.9369492846
 21
4272.972246223288
 31
0.0
  0
LINE
  5
76
330
1F
100
AcDbEntity
  8
1
  6
CONTINUOUS
 62
     3
100
AcDbLine
 10
24667.90382739176
 20
4674.611269637739
 30
0.0
 11
24673.26376725568
 21
4643.6190979975
 31
0.0
  0
LINE
  5
77
330
1F
100
AcDbEntity
  8
1
  6
CONTINUOUS
 62
     3
100
AcDbLine
 10
24661.31271293034
 20
4739.084638919149
 30
0.0
 11
24667.90382739176
 21
4674.611269637739
 31
0.0
  0
LINE
  5
78
330
1F
100
AcDbEntity
  8
1
  6
CONTINUOUS
 62
     3
100
AcDbLine
 10
24664.73271861672
 20
4810.05040121244
 30
0.0
 11
24661.31271293034
 21
4739.084638919149
 31
0.0
  0
LINE
  5
79
330
1F
100
AcDbEntity
  8
1
  6
CONTINUOUS
 62
     3
100
AcDbLine
 10
24675.22215540996
 20
4865.054509771161
 30
0.0
 11
24664.73271861672
 21
4810.05040121244
 31
0.0
  0
LINE
  5
7A
330
1F
100
AcDbEntity
  8
1
  6
CONTINUOUS
 62
     3
100
AcDbLine
 10
24688.69360588491
 20
4913.965121993282
 30
0.0
 11
24675.22215540996
 21
4865.054509771161
 31
0.0
  0
LINE
  5
7B
330
1F
100
AcDbEntity
  8
1
  6
CONTINUOUS
 62
     3
100
AcDbLine
 10
24688.69360588491
 20
4913.965121993282
 30
0.0
 11
24883.02158167592
 21
5414.693346451685
 31
0.0
  0
LINE
  5
7C
330
1F
100
AcDbEntity
  8
1
  6
CONTINUOUS
 62
     3
100
AcDbLine
 10
26580.56075420164
 20
4374.726316683972
 30
0.0
 11
26349.82708509241
 21
4408.646983518574
 31
0.0
  0
LINE
  5
7D
330
1F
100
AcDbEntity
  8
1
  6
CONTINUOUS
 62
     3
100
AcDbLine
 10
26480.48201384383
 20
3975.452374090909
 30
0.0
 11
26302.54762339101
 21
4000.654670449421
 31
0.0
  0
LINE
  5
7E
330
1F
100
AcDbEntity
  8
1
  6
CONTINUOUS
 62
     3
100
AcDbLine
 10
26535.79545864919
 20
4128.205105466724
 30
0.0
 11
26480.48201384383
 21
3975.452374090909
 31
0.0
  0
LINE
  5
7F
330
1F
100
AcDbEntity
  8
1
  6
CONTINUOUS
 62
     3
100
AcDbLine
 10
26570.94913167071
 20
4273.331983647727
 30
0.0
 11
26535.79545864919
 21
4128.205105466724
 31
0.0
  0
LINE
  5
80
330
1F
100
AcDbEntity
  8
1
  6
CONTINUOUS
 62
     3
100
AcDbLine
 10
26580.56075420164
 20
4374.726316683972
 30
0.0
 11
26570.94913167071
 21
4273.331983647727
 31
0.0
  0
LINE
  5
81
330
1F
100
AcDbEntity
  8
1
  6
CONTINUOUS
 62
     3
100
AcDbLine
 10
26575.40848302548
 20
4506.371927852263
 30
0.0
 11
26580.56075420164
 21
4374.726316683972
 31
0.0
  0
LINE
  5
82
330
1F
100
AcDbEntity
  8
1
  6
CONTINUOUS
 62
     3
100
AcDbLine
 10
26557.16537494942
 20
4651.49693651669
 30
0.0
 11
26575.40848302548
 21
4506.371927852263
 31
0.0
  0
LINE
  5
83
330
1F
100
AcDbEntity
  8
1
  6
CONTINUOUS
 62
     3
100
AcDbLine
 10
27245.82850941569
 20
4566.053081996937
 30
0.0
 11
27592.34676886633
 21
4216.332908381775
 31
0.0
  0
LINE
  5
84
330
1F
100
AcDbEntity
  8
1
  6
CONTINUOUS
 62
     3
100
AcDbLine
 10
24140.45124569655
 20
4990.977887110997
 30
0.0
 11
24201.34052518133
 21
4982.646092607027
 31
0.0
  0
LINE
  5
85
330
1F
100
AcDbEntity
  8
1
  6
CONTINUOUS
 62
     3
100
AcDbLine
 10
24118.68535460807
 20
5021.539384185648
 30
0.0
 11
24140.45124569655
 21
4990.977887110997
 31
0.0
  0
LINE
  5
86
330
1F
100
AcDbEntity
  8
1
  6
CONTINUOUS
 62
     3
100
AcDbLine
 10
24122.77429611492
 20
5110.114441677516
 30
0.0
 11
24118.68535460807
 21
5021.539384185648
 31
0.0
  0
LINE
  5
87
330
1F
100
AcDbEntity
  8
1
  6
CONTINUOUS
 62
     3
100
AcDbLine
 10
24199.40754412506
 20
5310.974674188523
 30
0.0
 11
24122.77429611492
 21
5110.114441677516
 31
0.0
  0
LINE
  5
88
330
1F
100
AcDbEntity
  8
1
  6
CONTINUOUS
 62
     3
100
AcDbLine
 10
24395.15235811726
 20
5472.142482588211
 30
0.0
 11
24342.04193175445
 21
5454.795220643203
 31
0.0
  0
LINE
  5
89
330
1F
100
AcDbEntity
  8
1
  6
CONTINUOUS
 62
     3
100
AcDbLine
 10
24530.89310134116
 20
5459.490954071281
 30
0.0
 11
24395.15235811726
 21
5472.142482588211
 31
0.0
  0
LINE
  5
8A
330
1F
100
AcDbEntity
  8
1
  6
CONTINUOUS
 62
     3
100
AcDbLine
 10
26460.2600266524
 20
5168.126790040221
 30
0.0
 11
26438.54787209828
 21
5174.252128019776
 31
0.0
  0
LINE
  5
8B
330
1F
100
AcDbEntity
  8
1
  6
CONTINUOUS
 62
     3
100
AcDbLine
 10
26471.56400567728
 20
5212.248721498278
 30
0.0
 11
26444.41034725377
 21
5224.841637987278
 31
0.0
  0
LINE
  5
8C
330
1F
100
AcDbEntity
  8
1
  6
CONTINUOUS
 62
     3
100
AcDbLine
 10
26552.32526721024
 20
5169.939384283499
 30
0.0
 11
26471.56400567728
 21
5212.248721498278
 31
0.0
  0
LINE
  5
8D
330
1F
100
AcDbEntity
  8
1
  6
CONTINUOUS
 62
     3
100
AcDbLine
 10
26681.35615496741
 20
5095.290969160821
 30
0.0
 11
26552.32526721024
 21
5169.939384283499
 31
0.0
  0
LINE
  5
8E
330
1F
100
AcDbEntity
  8
1
  6
CONTINUOUS
 62
     3
100
AcDbLine
 10
26837.66335540905
 20
4992.174745339852
 30
0.0
 11
26681.35615496741
 21
5095.290969160821
 31
0.0
  0
LINE
  5
8F
330
1F
100
AcDbEntity
  8
1
  6
CONTINUOUS
 62
     3
100
AcDbLine
 10
27047.53764727856
 20
4828.520776693477
 30
0.0
 11
26837.66335540905
 21
4992.174745339852
 31
0.0
  0
LINE
  5
90
330
1F
100
AcDbEntity
  8
1
  6
CONTINUOUS
 62
     3
100
AcDbLine
 10
27245.82850941569
 20
4566.053081996937
 30
0.0
 11
26460.2600266524
 21
5168.126790040221
 31
0.0
  0
LINE
  5
91
330
1F
100
AcDbEntity
  8
1
  6
CONTINUOUS
 62
     3
100
AcDbLine
 10
26405.61066104068
 20
3820.934448387016
 30
0.0
 11
26393.35940647367
 21
3826.529380139621
 31
0.0
  0
LINE
  5
92
330
1F
100
AcDbEntity
  8
1
  6
CONTINUOUS
 62
     3
100
AcDbLine
 10
27763.33494454082
 20
4042.741659920233
 30
0.0
 11
27807.9202193911
 21
4036.626499512019
 31
0.0
  0
LINE
  5
93
330
1F
100
AcDbEntity
  8
1
  6
CONTINUOUS
 62
     3
100
AcDbLine
 10
27775.44487404989
 20
4136.268798516773
 30
0.0
 11
27763.33494454082
 21
4042.741659920233
 31
0.0
  0
LINE
  5
94
330
1F
100
AcDbEntity
  8
1
  6
CONTINUOUS
 62
     3
100
AcDbLine
 10
27752.00943397151
 20
4180.333661596181
 30
0.0
 11
27775.44487404989
 21
4136.268798516773
 31
0.0
  0
LINE
  5
95
330
1F
100
AcDbEntity
  8
1
  6
CONTINUOUS
 62
     3
100
AcDbLine
 10
27688.04997459804
 20
4210.751711694885
 30
0.0
 11
27752.00943397151
 21
4180.333661596181
 31
0.0
  0
LINE
  5
96
330
1F
100
AcDbEntity
  8
1
  6
CONTINUOUS
 62
     3
100
AcDbLine
 10
27592.34676886633
 20
4216.332908381775
 30
0.0
 11
27688.04997459804
 21
4210.751711694885
 31
0.0
  0
LINE
  5
97
330
1F
100
AcDbEntity
  8
1
  6
CONTINUOUS
 62
     3
100
AcDbLine
 10
27529.79781661042
 20
4196.755046997398
 30
0.0
 11
27592.34676886633
 21
4216.332908381775
 31
0.0
  0
LINE
  5
98
330
1F
100
AcDbEntity
  8
1
  6
CONTINUOUS
 62
     3
100
AcDbLine
 10
27489.5566872029
 20
4080.292128444314
 30
0.0
 11
27763.33494454082
 21
4042.741659920233
 31
0.0
  0
LINE
  5
99
330
1F
100
AcDbEntity
  8
1
  6
CONTINUOUS
 62
     3
100
AcDbLine
 10
27489.5566872029
 20
4080.292128444314
 30
0.0
 11
27529.79781661042
 21
4196.755046997398
 31
0.0
  0
LINE
  5
9A
330
1F
100
AcDbEntity
  8
1
  6
CONTINUOUS
 62
     3
100
AcDbLine
 10
27176.09697801703
 20
4123.285166159591
 30
0.0
 11
27489.5566872029
 21
4080.292128444314
 31
0.0
  0
LINE
  5
9B
330
1F
100
AcDbEntity
  8
1
  6
CONTINUOUS
 62
     3
100
AcDbLine
 10
23827.15663623422
 20
4779.510343684299
 30
0.0
 11
23803.54596353255
 21
4575.71183210734
 31
0.0
  0
LINE
  5
9C
330
1F
100
AcDbEntity
  8
1
  6
CONTINUOUS
 62
     3
100
AcDbLine
 10
27500.99949567209
 20
4239.410582263348
 30
0.0
 11
26580.56075420164
 21
4374.726316683972
 31
0.0
  0
LINE
  5
9D
330
1F
100
AcDbEntity
  8
1
  6
CONTINUOUS
 62
     3
100
AcDbLine
 10
27276.74691924671
 20
3708.228520714365
 30
0.0
 11
27699.59665416738
 21
3693.518874602537
 31
0.0
  0
LINE
  5
9E
330
1F
100
AcDbEntity
  8
1
  6
CONTINUOUS
 62
     3
100
AcDbLine
 10
27251.14069360308
 20
4012.790488301026
 30
0.0
 11
27276.74691924671
 21
3708.228520714365
 31
0.0
  0
LINE
  5
9F
330
1F
100
AcDbEntity
  8
1
  6
CONTINUOUS
 62
     3
100
AcDbLine
 10
27200.48586918536
 20
4090.604939164661
 30
0.0
 11
27251.14069360308
 21
4012.790488301026
 31
0.0
  0
LINE
  5
A0
330
1F
100
AcDbEntity
  8
1
  6
CONTINUOUS
 62
     3
100
AcDbLine
 10
27162.53570338445
 20
4137.570028434623
 30
0.0
 11
27200.48586918536
 21
4090.604939164661
 31
0.0
  0
LINE
  5
A1
330
1F
100
AcDbEntity
  8
1
  6
CONTINUOUS
 62
     3
100
AcDbLine
 10
27067.11132634688
 20
4196.341429024119
 30
0.0
 11
27162.53570338445
 21
4137.570028434623
 31
0.0
  0
LINE
  5
A2
330
1F
100
AcDbEntity
  8
1
  6
CONTINUOUS
 62
     3
100
AcDbLine
 10
26828.86518501463
 20
4230.567146199601
 30
0.0
 11
27067.11132634688
 21
4196.341429024119
 31
0.0
  0
LINE
  5
A3
330
1F
100
AcDbEntity
  8
1
  6
CONTINUOUS
 62
     3
100
AcDbLine
 10
26766.93692912823
 20
4227.923679217632
 30
0.0
 11
26828.86518501463
 21
4230.567146199601
 31
0.0
  0
LINE
  5
A4
330
1F
100
AcDbEntity
  8
1
  6
CONTINUOUS
 62
     3
100
AcDbLine
 10
26704.35815598831
 20
4202.935273573158
 30
0.0
 11
26766.93692912823
 21
4227.923679217632
 31
0.0
  0
LINE
  5
A5
330
1F
100
AcDbEntity
  8
1
  6
CONTINUOUS
 62
     3
100
AcDbLine
 10
26648.94831586798
 20
4150.879488927593
 30
0.0
 11
26704.35815598831
 21
4202.935273573158
 31
0.0
  0
LINE
  5
A6
330
1F
100
AcDbEntity
  8
1
  6
CONTINUOUS
 62
     3
100
AcDbLine
 10
26504.73461940612
 20
3806.991259236598
 30
0.0
 11
26608.3154060485
 21
3792.421154043872
 31
0.0
  0
LINE
  5
A7
330
1F
100
AcDbEntity
  8
1
  6
CONTINUOUS
 62
     3
100
AcDbLine
 10
26504.73461940612
 20
3806.991259236598
 30
0.0
 11
26648.94831586798
 21
4150.879488927593
 31
0.0
  0
LINE
  5
A8
330
1F
100
AcDbEntity
  8
1
  6
CONTINUOUS
 62
     3
100
AcDbLine
 10
26405.61066104068
 20
3820.934448387016
 30
0.0
 11
26504.73461940612
 21
3806.991259236598
 31
0.0
  0
LINE
  5
A9
330
1F
100
AcDbEntity
  8
1
  6
CONTINUOUS
 62
     3
100
AcDbLine
 10
24710.41279793131
 20
4118.36337119884
 30
0.0
 11
24651.62643375587
 21
4137.026858492438
 31
0.0
  0
LINE
  5
AA
330
1F
100
AcDbEntity
  8
1
  6
CONTINUOUS
 62
     3
100
AcDbLine
 10
24308.25664744946
 20
4594.112660794523
 30
0.0
 11
24527.54778223292
 21
4563.266255730439
 31
0.0
  0
LINE
  5
AB
330
1F
100
AcDbEntity
  8
1
  6
CONTINUOUS
 62
     3
100
AcDbLine
 10
23552.81076730253
 20
4612.320500852829
 30
0.0
 11
24135.48149439616
 21
4527.24748375516
 31
0.0
  0
LINE
  5
AC
330
1F
100
AcDbEntity
  8
1
  6
CONTINUOUS
 62
     3
100
AcDbLine
 10
23841.75666925848
 20
4903.994135406086
 30
0.0
 11
23827.15663623422
 21
4779.510343684299
 31
0.0
  0
LINE
  5
AD
330
1F
100
AcDbEntity
  8
1
  6
CONTINUOUS
 62
     3
100
AcDbLine
 10
23741.05660904883
 20
4921.222289248813
 30
0.0
 11
23841.75666925848
 21
4903.994135406086
 31
0.0
  0
LINE
  5
AE
330
1F
100
AcDbEntity
  8
1
  6
CONTINUOUS
 62
     3
100
AcDbLine
 10
23722.75700510117
 20
4904.940035943827
 30
0.0
 11
23741.05660904883
 21
4921.222289248813
 31
0.0
  0
LINE
  5
AF
330
1F
100
AcDbEntity
  8
1
  6
CONTINUOUS
 62
     3
100
AcDbLine
 10
23687.6289303724
 20
4775.580938804676
 30
0.0
 11
23722.75700510117
 21
4904.940035943827
 31
0.0
  0
LINE
  5
B0
330
1F
100
AcDbEntity
  8
1
  6
CONTINUOUS
 62
     3
100
AcDbLine
 10
23676.2164263136
 20
4594.302619996924
 30
0.0
 11
23687.6289303724
 21
4775.580938804676
 31
0.0
  0
LINE
  5
B1
330
1F
100
AcDbEntity
  8
1
  6
CONTINUOUS
 62
     3
100
AcDbLine
 10
23845.41971639641
 20
4935.226256335262
 30
0.0
 11
23841.75666925848
 21
4903.994135406086
 31
0.0
  0
LINE
  5
B2
330
1F
100
AcDbEntity
  8
1
  6
CONTINUOUS
 62
     3
100
AcDbLine
 10
23894.20860993877
 20
5135.896806201069
 30
0.0
 11
23845.41971639641
 21
4935.226256335262
 31
0.0
  0
LINE
  5
B3
330
1F
100
AcDbEntity
  8
1
  6
CONTINUOUS
 62
     3
100
AcDbLine
 10
23990.86957082381
 20
5337.208665716807
 30
0.0
 11
23894.20860993877
 21
5135.896806201069
 31
0.0
  0
LINE
  5
B4
330
1F
100
AcDbEntity
  8
1
  6
CONTINUOUS
 62
     3
100
AcDbLine
 10
24123.1072543524
 20
5530.692365718653
 30
0.0
 11
23990.86957082381
 21
5337.208665716807
 31
0.0
  0
LINE
  5
B5
330
1F
100
AcDbEntity
  8
1
  6
CONTINUOUS
 62
     3
100
AcDbLine
 10
24113.40571555241
 20
5593.615575854738
 30
0.0
 11
24123.1072543524
 21
5530.692365718653
 31
0.0
  0
LINE
  5
B6
330
1F
100
AcDbEntity
  8
1
  6
CONTINUOUS
 62
     3
100
AcDbLine
 10
23580.79630466802
 20
4289.087739150049
 30
0.0
 11
23937.88043768374
 21
4234.211637473326
 31
0.0
  0
LINE
  5
B7
330
1F
100
AcDbEntity
  8
1
  6
CONTINUOUS
 62
     3
100
AcDbLine
 10
23538.5384963895
 20
4337.607079758331
 30
0.0
 11
23580.79630466802
 21
4289.087739150049
 31
0.0
  0
LINE
  5
B8
330
1F
100
AcDbEntity
  8
1
  6
CONTINUOUS
 62
     3
100
AcDbLine
 10
23522.72558446191
 20
4494.709105085833
 30
0.0
 11
23538.5384963895
 21
4337.607079758331
 31
0.0
  0
LINE
  5
B9
330
1F
100
AcDbEntity
  8
1
  6
CONTINUOUS
 62
     3
100
AcDbLine
 10
23549.6003241688
 20
4490.631897091925
 30
0.0
 11
23522.72558446191
 21
4494.709105085833
 31
0.0
  0
LINE
  5
BA
330
1F
100
AcDbEntity
  8
1
  6
CONTINUOUS
 62
     3
100
AcDbLine
 10
23552.81076730253
 20
4612.320500852829
 30
0.0
 11
23549.6003241688
 21
4490.631897091925
 31
0.0
  0
LINE
  5
BB
330
1F
100
AcDbEntity
  8
1
  6
CONTINUOUS
 62
     3
100
AcDbLine
 10
23637.76452176558
 20
4888.917469233288
 30
0.0
 11
23552.81076730253
 21
4612.320500852829
 31
0.0
  0
LINE
  5
BC
330
1F
100
AcDbEntity
  8
1
  6
CONTINUOUS
 62
     3
100
AcDbLine
 10
23704.92451732057
 20
5090.458321467232
 30
0.0
 11
23637.76452176558
 21
4888.917469233288
 31
0.0
  0
LINE
  5
BD
330
1F
100
AcDbEntity
  8
1
  6
CONTINUOUS
 62
     3
100
AcDbLine
 10
23847.85675758748
 20
5354.735222354514
 30
0.0
 11
23704.92451732057
 21
5090.458321467232
 31
0.0
  0
LINE
  5
BE
330
1F
100
AcDbEntity
  8
1
  6
CONTINUOUS
 62
     3
100
AcDbLine
 10
23947.93597278117
 20
5508.442582461887
 30
0.0
 11
23847.85675758748
 21
5354.735222354514
 31
0.0
  0
LINE
  5
BF
330
1F
100
AcDbEntity
  8
1
  6
CONTINUOUS
 62
     3
100
AcDbLine
 10
24010.83043538037
 20
5571.981307176059
 30
0.0
 11
23947.93597278117
 21
5508.442582461887
 31
0.0
  0
LINE
  5
C0
330
1F
100
AcDbEntity
  8
1
  6
CONTINUOUS
 62
     3
100
AcDbLine
 10
24050.8761968935
 20
5590.029265811385
 30
0.0
 11
24010.83043538037
 21
5571.981307176059
 31
0.0
  0
LINE
  5
C1
330
1F
100
AcDbEntity
  8
1
  6
CONTINUOUS
 62
     3
100
AcDbLine
 10
24113.40571555241
 20
5593.615575854738
 30
0.0
 11
24050.8761968935
 21
5590.029265811385
 31
0.0
  0
LINE
  5
C2
330
1F
100
AcDbEntity
  8
1
  6
CONTINUOUS
 62
     3
100
AcDbLine
 10
24444.88238534308
 20
5568.814731454812
 30
0.0
 11
24357.38249415458
 21
5575.361409951814
 31
0.0
  0
LINE
  5
C3
330
1F
100
AcDbEntity
  8
1
  6
CONTINUOUS
 62
     3
100
AcDbLine
 10
25168.17164396312
 20
5484.68899686366
 30
0.0
 11
24444.88238534308
 21
5568.814731454812
 31
0.0
  0
LINE
  5
C4
330
1F
100
AcDbEntity
  8
1
  6
CONTINUOUS
 62
     3
100
AcDbLine
 10
25736.01007318298
 20
5389.357520419519
 30
0.0
 11
25647.6029624316
 21
5404.199736025934
 31
0.0
  0
LINE
  5
C5
330
1F
100
AcDbEntity
  8
1
  6
CONTINUOUS
 62
     3
100
AcDbLine
 10
27280.26747042013
 20
4613.313501124803
 30
0.0
 11
27047.53764727856
 21
4828.520776693477
 31
0.0
  0
LINE
  5
C6
330
1F
100
AcDbEntity
  8
1
  6
CONTINUOUS
 62
     3
100
AcDbLine
 10
27403.07932287609
 20
4571.63430492369
 30
0.0
 11
27280.26747042013
 21
4613.313501124803
 31
0.0
  0
LINE
  5
C7
330
1F
100
AcDbEntity
  8
1
  6
CONTINUOUS
 62
     3
100
AcDbLine
 10
27723.42657940646
 20
4307.728475092379
 30
0.0
 11
27403.07932287609
 21
4571.63430492369
 31
0.0
  0
LINE
  5
C8
330
1F
100
AcDbEntity
  8
1
  6
CONTINUOUS
 62
     3
100
AcDbLine
 10
27833.10863633204
 20
4171.194000178392
 30
0.0
 11
27723.42657940646
 21
4307.728475092379
 31
0.0
  0
LINE
  5
C9
330
1F
100
AcDbEntity
  8
1
  6
CONTINUOUS
 62
     3
100
AcDbLine
 10
27807.9202193911
 20
4036.626499512019
 30
0.0
 11
27833.10863633204
 21
4171.194000178392
 31
0.0
  0
LINE
  5
CA
330
1F
100
AcDbEntity
  8
1
  6
CONTINUOUS
 62
     3
100
AcDbLine
 10
27880.04949444682
 20
4001.726005219406
 30
0.0
 11
27807.9202193911
 21
4036.626499512019
 31
0.0
  0
LINE
  5
CB
330
1F
100
AcDbEntity
  8
1
  6
CONTINUOUS
 62
     3
100
AcDbLine
 10
27884.64823400854
 20
3962.883374715389
 30
0.0
 11
27880.04949444682
 21
4001.726005219406
 31
0.0
  0
LINE
  5
CC
330
1F
100
AcDbEntity
  8
1
  6
CONTINUOUS
 62
     3
100
AcDbLine
 10
27832.3274274434
 20
3771.460421729379
 30
0.0
 11
27884.64823400854
 21
3962.883374715389
 31
0.0
  0
LINE
  5
CD
330
1F
100
AcDbEntity
  8
1
  6
CONTINUOUS
 62
     3
100
AcDbLine
 10
27770.51149028911
 20
3712.496111220929
 30
0.0
 11
27832.3274274434
 21
3771.460421729379
 31
0.0
  0
LINE
  5
CE
330
1F
100
AcDbEntity
  8
1
  6
CONTINUOUS
 62
     3
100
AcDbLine
 10
27699.59665416738
 20
3693.518874602537
 30
0.0
 11
27770.51149028911
 21
3712.496111220929
 31
0.0
  0
LINE
  5
CF
330
1F
100
AcDbEntity
  8
1
  6
CONTINUOUS
 62
     3
100
AcDbLine
 10
27183.88720675727
 20
3711.458825467949
 30
0.0
 11
27276.74691924671
 21
3708.228520714365
 31
0.0
  0
LINE
  5
D0
330
1F
100
AcDbEntity
  8
1
  6
CONTINUOUS
 62
     3
100
AcDbLine
 10
24277.51655820392
 20
5581.336921445934
 30
0.0
 11
24113.40571555241
 21
5593.615575854738
 31
0.0
  0
LINE
  5
D1
330
1F
100
AcDbEntity
  8
1
  6
CONTINUOUS
 62
     3
100
AcDbLine
 10
24253.46678769316
 20
5392.322391952039
 30
0.0
 11
24199.40754412506
 21
5310.974674188523
 31
0.0
  0
LINE
  5
D2
330
1F
100
AcDbEntity
  8
1
  6
CONTINUOUS
 62
     3
100
AcDbLine
 10
24280.58704281727
 20
4971.802382422168
 30
0.0
 11
24875.54242399041
 21
4890.391565659191
 31
0.0
  0
LINE
  5
D3
330
1F
100
AcDbEntity
  8
1
  6
CONTINUOUS
 62
     3
100
AcDbLine
 10
24230.9581612459
 20
4581.753766560269
 30
0.0
 11
24272.5436761026
 21
4591.07061781728
 31
0.0
  0
LINE
  5
D4
330
1F
100
AcDbEntity
  8
1
  6
CONTINUOUS
 62
     3
100
AcDbLine
 10
24638.97438456962
 20
4504.152506071787
 30
0.0
 11
24646.23768822332
 21
4497.590089176184
 31
0.0
  0
LINE
  5
D5
330
1F
100
AcDbEntity
  8
1
  6
CONTINUOUS
 62
     3
100
AcDbLine
 10
24689.85938789064
 20
4565.839777616423
 30
0.0
 11
24705.87287447443
 21
4515.319903297393
 31
0.0
  0
LINE
  5
D6
330
1F
100
AcDbEntity
  8
1
  6
CONTINUOUS
 62
     3
100
AcDbLine
 10
24681.67881820444
 20
4653.885148413523
 30
0.0
 11
24248.24361023551
 21
4717.60541663732
 31
0.0
  0
LINE
  5
D7
330
1F
100
AcDbEntity
  8
1
  6
CONTINUOUS
 62
     3
100
AcDbLine
 10
24169.09782497883
 20
4729.240813514677
 30
0.0
 11
23827.15663623422
 21
4779.510343684299
 31
0.0
  0
LINE
  5
D8
330
1F
100
AcDbEntity
  8
1
  6
CONTINUOUS
 62
     3
100
AcDbLine
 10
25339.15625817696
 20
5455.983268467235
 30
0.0
 11
25168.17164396312
 21
5484.68899686366
 31
0.0
  0
LINE
  5
D9
330
1F
100
AcDbEntity
  8
1
  6
CONTINUOUS
 62
     3
100
AcDbLine
 10
25258.12659092822
 20
5357.130076224606
 30
0.0
 11
24530.89310134116
 21
5459.490954071281
 31
0.0
  0
LINE
  5
DA
330
1F
100
AcDbEntity
  8
1
  6
CONTINUOUS
 62
     3
100
AcDbLine
 10
24949.25734624822
 20
4880.30477223143
 30
0.0
 11
25496.15006902991
 21
4805.470617180012
 31
0.0
  0
LINE
  5
DB
330
1F
100
AcDbEntity
  8
1
  6
CONTINUOUS
 62
     3
100
AcDbLine
 10
25563.54715739482
 20
5418.311433272043
 30
0.0
 11
25413.79096091253
 21
5443.453231682782
 31
0.0
  0
LINE
  5
DC
330
1F
100
AcDbEntity
  8
1
  6
CONTINUOUS
 62
     3
100
AcDbLine
 10
25552.26565509655
 20
5315.728884931333
 30
0.0
 11
25333.79822254831
 21
5346.479006449037
 31
0.0
  0
LINE
  5
DD
330
1F
100
AcDbEntity
  8
1
  6
CONTINUOUS
 62
     3
100
AcDbLine
 10
25466.78613771831
 20
4538.464785544717
 30
0.0
 11
24753.74721465926
 21
4643.290214111626
 31
0.0
  0
LINE
  5
DE
330
1F
100
AcDbEntity
  8
1
  6
CONTINUOUS
 62
     3
100
AcDbLine
 10
25421.36638034833
 20
4125.463543968515
 30
0.0
 11
24784.29220433793
 21
4215.69754620557
 31
0.0
  0
LINE
  5
DF
330
1F
100
AcDbEntity
  8
1
  6
CONTINUOUS
 62
     3
100
AcDbLine
 10
25408.75868952228
 20
4010.821981219779
 30
0.0
 11
24735.47541845801
 21
4114.503866789329
 31
0.0
  0
LINE
  5
E0
330
1F
100
AcDbEntity
  8
1
  6
CONTINUOUS
 62
     3
100
AcDbLine
 10
25580.43981302034
 20
4793.936816293174
 30
0.0
 11
26146.27306847501
 21
4716.510930359698
 31
0.0
  0
LINE
  5
E1
330
1F
100
AcDbEntity
  8
1
  6
CONTINUOUS
 62
     3
100
AcDbLine
 10
26210.89041476804
 20
5285.41938172155
 30
0.0
 11
25736.01007318298
 21
5389.357520419519
 31
0.0
  0
LINE
  5
E2
330
1F
100
AcDbEntity
  8
1
  6
CONTINUOUS
 62
     3
100
AcDbLine
 10
26203.91508987122
 20
5224.006750091667
 30
0.0
 11
25636.5604123914
 21
5303.864077440862
 31
0.0
  0
LINE
  5
E3
330
1F
100
AcDbEntity
  8
1
  6
CONTINUOUS
 62
     3
100
AcDbLine
 10
26416.6794758174
 20
4985.541485794235
 30
0.0
 11
26554.86845441957
 21
4667.412209436437
 31
0.0
  0
LINE
  5
E4
330
1F
100
AcDbEntity
  8
1
  6
CONTINUOUS
 62
     3
100
AcDbLine
 10
26381.76911264797
 20
4684.286790689313
 30
0.0
 11
27245.82850941569
 21
4566.053081996937
 31
0.0
  0
LINE
  5
E5
330
1F
100
AcDbEntity
  8
1
  6
CONTINUOUS
 62
     3
100
AcDbLine
 10
26115.22287162924
 20
4443.136667636198
 30
0.0
 11
25587.66164398402
 21
4520.694610119814
 31
0.0
  0
LINE
  5
E6
330
1F
100
AcDbEntity
  8
1
  6
CONTINUOUS
 62
     3
100
AcDbLine
 10
26011.16147642856
 20
4041.926062740838
 30
0.0
 11
25526.99449653461
 21
4110.50257391015
 31
0.0
  0
LINE
  5
E7
330
1F
100
AcDbEntity
  8
1
  6
CONTINUOUS
 62
     3
100
AcDbLine
 10
26022.64682810911
 20
3916.286616280663
 30
0.0
 11
25492.82844167245
 21
3997.875706157106
 31
0.0
  0
LINE
  5
E8
330
1F
100
AcDbEntity
  8
1
  6
CONTINUOUS
 62
     3
100
AcDbLine
 10
23015.99212780143
 20
4257.878323510258
 30
0.0
 11
22846.5759523462
 21
4130.214078343028
 31
0.0
  0
LINE
  5
E9
330
1F
100
AcDbEntity
  8
1
  6
CONTINUOUS
 62
     3
100
AcDbLine
 10
25117.33435175172
 20
2112.032191461388
 30
0.0
 11
25115.91555197865
 21
2349.347071725444
 31
0.0
  0
LINE
  5
EA
330
1F
100
AcDbEntity
  8
1
  6
CONTINUOUS
 62
     3
100
AcDbLine
 10
26485.90673156288
 20
2358.657691392533
 30
0.0
 11
26487.29921482515
 21
2138.4491983773
 31
0.0
  0
LINE
  5
EB
330
1F
100
AcDbEntity
  8
1
  6
CONTINUOUS
 62
     3
100
AcDbLine
 10
27268.87269219916
 20
2169.763473222501
 30
0.0
 11
27268.94961786985
 21
2153.521748527769
 31
0.0
  0
LINE
  5
EC
330
1F
100
AcDbEntity
  8
1
  6
CONTINUOUS
 62
     3
100
AcDbLine
 10
27308.8709123251
 20
2170.1408149218
 30
0.0
 11
27308.39923520098
 21
2220.138590079211
 31
0.0
  0
LINE
  5
ED
330
1F
100
AcDbEntity
  8
1
  6
CONTINUOUS
 62
     3
100
AcDbLine
 10
27588.38677608245
 20
2222.779981974319
 30
0.0
 11
27588.85845320657
 21
2172.782206816911
 31
0.0
  0
LINE
  5
EE
330
1F
100
AcDbEntity
  8
1
  6
CONTINUOUS
 62
     3
100
AcDbLine
 10
27628.8566733325
 20
2173.15954851621
 30
0.0
 11
27628.93297307471
 21
2160.463300855416
 31
0.0
  0
LINE
  5
EF
330
1F
100
AcDbEntity
  8
1
  6
CONTINUOUS
 62
     3
100
AcDbLine
 10
27268.87269219916
 20
2169.763473222501
 30
0.0
 11
27628.8566733325
 21
2173.15954851621
 31
0.0
  0
LINE
  5
F0
330
1F
100
AcDbEntity
  8
1
  6
CONTINUOUS
 62
     3
100
AcDbLine
 10
27432.72354256422
 20
2209.441096324102
 30
0.0
 11
26393.51156146119
 21
3824.864941039998
 31
0.0
  0
LINE
  5
F1
330
1F
100
AcDbEntity
  8
1
  6
CONTINUOUS
 62
     3
100
AcDbLine
 10
26400.18696596251
 20
3751.842002794319
 30
0.0
 11
27401.32466822221
 21
2184.659839494479
 31
0.0
  0
LINE
  5
F2
330
1F
100
AcDbEntity
  8
1
  6
CONTINUOUS
 62
     3
100
AcDbLine
 10
27401.32466822221
 20
2184.659839494479
 30
0.0
 11
27432.72354256422
 21
2209.441096324102
 31
0.0
  0
LINE
  5
F3
330
1F
100
AcDbEntity
  8
1
  6
CONTINUOUS
 62
     3
100
AcDbLine
 10
27558.10510471353
 20
2252.49564079429
 30
0.0
 11
27588.38677608245
 21
2222.779981974319
 31
0.0
  0
LINE
  5
F4
330
1F
100
AcDbEntity
  8
1
  6
CONTINUOUS
 62
     3
100
AcDbLine
 10
27338.11489402094
 20
2250.420261448131
 30
0.0
 11
27359.18899456591
 21
2250.619073717426
 31
0.0
  0
LINE
  5
F5
330
1F
100
AcDbEntity
  8
1
  6
CONTINUOUS
 62
     3
100
AcDbLine
 10
27308.39923520098
 20
2220.138590079211
 30
0.0
 11
27338.11489402094
 21
2250.420261448131
 31
0.0
  0
LINE
  5
F6
330
1F
100
AcDbEntity
  8
1
  6
CONTINUOUS
 62
     3
100
AcDbLine
 10
28053.99092796645
 20
5556.414256122798
 30
0.0
 11
28012.23899767843
 21
5259.333835500326
 31
0.0
  0
LINE
  5
F7
330
1F
100
AcDbEntity
  8
1
  6
CONTINUOUS
 62
     3
100
AcDbLine
 10
27858.40298394775
 20
3577.321859815498
 30
0.0
 11
27858.40298394775
 21
3577.321859815527
 31
0.0
  0
LINE
  5
F8
330
1F
100
AcDbEntity
  8
1
  6
CONTINUOUS
 62
     3
100
AcDbLine
 10
26430.49869242345
 20
3778.000720821457
 30
0.0
 11
27858.40298394775
 21
3577.321859815498
 31
0.0
  0
LINE
  5
F9
330
1F
100
AcDbEntity
  8
1
  6
CONTINUOUS
 62
     3
100
AcDbLine
 10
27834.18262857608
 20
3404.985076538547
 30
0.0
 11
26547.272270314
 21
3585.848532474723
 31
0.0
  0
LINE
  5
FA
330
1F
100
AcDbEntity
  8
1
  6
CONTINUOUS
 62
     3
100
AcDbLine
 10
27822.21797769813
 20
3319.852161942717
 30
0.0
 11
27858.40298394775
 21
3577.321859815498
 31
0.0
  0
LINE
  5
FB
330
1F
100
AcDbEntity
  8
1
  6
CONTINUOUS
 62
     3
100
AcDbLine
 10
26497.65634937233
 20
5684.3214794295
 30
0.0
 11
26299.50565850776
 21
3974.404407770277
 31
0.0
  0
LINE
  5
FC
330
1F
100
AcDbEntity
  8
1
  6
CONTINUOUS
 62
     3
100
AcDbLine
 10
28012.23899767843
 20
5259.333835500326
 30
0.0
 11
26468.42132919415
 21
5476.303259257407
 31
0.0
  0
LINE
  5
FD
330
1F
100
AcDbEntity
  8
1
  6
CONTINUOUS
 62
     3
100
AcDbLine
 10
26478.85929982076
 20
5550.573366092298
 30
0.0
 11
28022.67698025044
 21
5333.603940655948
 31
0.0
  0
LINE
  5
FE
330
1F
100
AcDbEntity
  8
1
  6
CONTINUOUS
 62
     3
100
AcDbLine
 10
26259.99201286884
 20
5717.723023660687
 30
0.0
 11
26497.65634937233
 21
5684.3214794295
 31
0.0
  0
LINE
  5
FF
330
1F
100
AcDbEntity
  8
1
  6
CONTINUOUS
 62
     3
100
AcDbLine
 10
26082.36059742744
 20
4153.808389752479
 30
0.0
 11
26259.99201286884
 21
5717.723023660687
 31
0.0
  0
LINE
  5
100
330
1F
100
AcDbEntity
  8
1
  6
CONTINUOUS
 62
     3
100
AcDbLine
 10
26030.1446830862
 20
3834.266807470167
 30
0.0
 11
26030.30305977845
 21
3832.534308500997
 31
0.0
  0
LINE
  5
101
330
1F
100
AcDbEntity
  8
1
  6
CONTINUOUS
 62
     3
100
AcDbLine
 10
25472.55018929484
 20
3912.631603053078
 30
0.0
 11
26030.1446830862
 21
3834.266807470167
 31
0.0
  0
LINE
  5
102
330
1F
100
AcDbEntity
  8
1
  6
CONTINUOUS
 62
     3
100
AcDbLine
 10
26046.41913958349
 20
3656.238849532047
 30
0.0
 11
25993.5949728806
 21
3663.662802012926
 31
0.0
  0
LINE
  5
103
330
1F
100
AcDbEntity
  8
1
  6
CONTINUOUS
 62
     3
100
AcDbLine
 10
26340.30266218416
 20
3528.121777343307
 30
0.0
 11
26299.50565850776
 21
3974.404407770277
 31
0.0
  0
LINE
  5
104
330
1F
100
AcDbEntity
  8
1
  6
CONTINUOUS
 62
     3
100
AcDbLine
 10
26340.30266218416
 20
3528.121777343307
 30
0.0
 11
26563.10567763764
 21
3496.808855577166
 31
0.0
  0
LINE
  5
105
330
1F
100
AcDbEntity
  8
1
  6
CONTINUOUS
 62
     3
100
AcDbLine
 10
26001.19631663707
 20
3575.780066199377
 30
0.0
 11
26054.45858356481
 21
3568.294542747217
 31
0.0
  0
LINE
  5
106
330
1F
100
AcDbEntity
  8
1
  6
CONTINUOUS
 62
     3
100
AcDbLine
 10
25960.54681298017
 20
3581.492981373527
 30
0.0
 11
25942.41047813408
 21
3789.595722069598
 31
0.0
  0
LINE
  5
107
330
1F
100
AcDbEntity
  8
1
  6
CONTINUOUS
 62
     3
100
AcDbLine
 10
25438.15482361722
 20
3654.910387600468
 30
0.0
 11
25960.54681298017
 21
3581.492981373527
 31
0.0
  0
LINE
  5
108
330
1F
100
AcDbEntity
  8
1
  6
CONTINUOUS
 62
     3
100
AcDbLine
 10
25240.52976293873
 20
2350.193964552634
 30
0.0
 11
25413.13214804814
 21
3958.773946997639
 31
0.0
  0
LINE
  5
109
330
1F
100
AcDbEntity
  8
1
  6
CONTINUOUS
 62
     3
100
AcDbLine
 10
25477.56098115855
 20
3950.176991626739
 30
0.0
 11
25306.16547416923
 21
2350.640032562214
 31
0.0
  0
LINE
  5
10A
330
1F
100
AcDbEntity
  8
1
  6
CONTINUOUS
 62
     3
100
AcDbLine
 10
26299.50565850776
 20
3974.404407770277
 30
0.0
 11
26282.93256423919
 21
4155.699195072977
 31
0.0
  0
LINE
  5
10B
330
1F
100
AcDbEntity
  8
1
  6
CONTINUOUS
 62
     3
100
AcDbLine
 10
25942.41047813408
 20
3789.595722069598
 30
0.0
 11
25982.2019687372
 21
3793.06358508441
 31
0.0
  0
LINE
  5
10C
330
1F
100
AcDbEntity
  8
1
  6
CONTINUOUS
 62
     3
100
AcDbLine
 10
26043.27808840083
 20
2355.649535800972
 30
0.0
 11
25960.54681298017
 21
3581.492981373527
 31
0.0
  0
LINE
  5
10D
330
1F
100
AcDbEntity
  8
1
  6
CONTINUOUS
 62
     3
100
AcDbLine
 10
25979.13714567315
 20
3827.873587737979
 30
0.0
 11
26084.36345939988
 21
2355.928756747045
 31
0.0
  0
LINE
  5
10E
330
1F
100
AcDbEntity
  8
1
  6
CONTINUOUS
 62
     3
100
AcDbLine
 10
25987.90769157429
 20
3728.258464870667
 30
0.0
 11
26039.4066181666
 21
3732.94954448223
 31
0.0
  0
LINE
  5
10F
330
1F
100
AcDbEntity
  8
1
  6
CONTINUOUS
 62
     3
100
AcDbLine
 10
26030.30305977845
 20
3832.534308500997
 30
0.0
 11
26139.87144705632
 21
2356.305995468532
 31
0.0
  0
LINE
  5
110
330
1F
100
AcDbEntity
  8
1
  6
CONTINUOUS
 62
     3
100
AcDbLine
 10
26030.30305977845
 20
3832.534308500997
 30
0.0
 11
25979.13714567315
 21
3827.873587737979
 31
0.0
  0
LINE
  5
111
330
1F
100
AcDbEntity
  8
1
  6
CONTINUOUS
 62
     3
100
AcDbLine
 10
26421.86792997044
 20
2358.222476270183
 30
0.0
 11
26340.30266218416
 21
3528.121777343307
 31
0.0
  0
LINE
  5
112
330
1F
100
AcDbEntity
  8
1
  6
CONTINUOUS
 62
     3
100
AcDbLine
 10
26001.00384556875
 20
4153.041434221659
 30
0.0
 11
26030.1446830862
 21
3834.266807470167
 31
0.0
  0
LINE
  5
113
330
1F
100
AcDbEntity
  8
1
  6
CONTINUOUS
 62
     3
100
AcDbLine
 10
26282.93256423919
 20
4155.699195072977
 30
0.0
 11
26001.00384556875
 21
4153.041434221659
 31
0.0
  0
LINE
  5
114
330
1F
100
AcDbEntity
  8
1
  6
CONTINUOUS
 62
     3
100
AcDbLine
 10
26407.22263029185
 20
3674.878145137818
 30
0.0
 11
26327.55481907688
 21
3667.595298427279
 31
0.0
  0
LINE
  5
115
330
1F
100
AcDbEntity
  8
1
  6
CONTINUOUS
 62
     3
100
AcDbLine
 10
26389.92586935437
 20
3864.089196773477
 30
0.0
 11
26407.22263029185
 21
3674.878145137818
 31
0.0
  0
LINE
  5
116
330
1F
100
AcDbEntity
  8
1
  6
CONTINUOUS
 62
     3
100
AcDbLine
 10
26310.25805813935
 20
3856.806350062927
 30
0.0
 11
26389.92586935437
 21
3864.089196773477
 31
0.0
  0
LINE
  5
117
330
1F
100
AcDbEntity
  8
1
  6
CONTINUOUS
 62
     3
100
AcDbLine
 10
25115.91555197865
 20
2349.347071725444
 30
0.0
 11
26485.90673156288
 21
2358.657691392533
 31
0.0
  0
LINE
  5
118
330
1F
100
AcDbEntity
  8
1
  6
CONTINUOUS
 62
     3
100
AcDbLine
 10
25385.15888234401
 20
3749.172918039299
 30
0.0
 11
24148.469065242
 21
3922.978337203478
 31
0.0
  0
LINE
  5
119
330
1F
100
AcDbEntity
  8
1
  6
CONTINUOUS
 62
     3
100
AcDbLine
 10
24306.24097938053
 20
4076.54567293553
 30
0.0
 11
25408.18134568448
 21
3921.67805406291
 31
0.0
  0
LINE
  5
11A
330
1F
100
AcDbEntity
  8
1
  6
CONTINUOUS
 62
     3
100
AcDbLine
 10
25952.88704046891
 20
3669.383928813078
 30
0.0
 11
25449.52772595454
 21
3740.126467030148
 31
0.0
  0
LINE
  5
11B
330
1F
100
AcDbEntity
  8
1
  6
CONTINUOUS
 62
     3
100
AcDbLine
 10
25403.18117441956
 20
3960.105711567119
 30
0.0
 11
25590.53951407326
 21
5663.752568733229
 31
0.0
  0
LINE
  5
11C
330
1F
100
AcDbEntity
  8
1
  6
CONTINUOUS
 62
     3
100
AcDbLine
 10
25487.43392950187
 20
3948.859679115327
 30
0.0
 11
25403.18117441956
 21
3960.105711567119
 31
0.0
  0
LINE
  5
11D
330
1F
100
AcDbEntity
  8
1
  6
CONTINUOUS
 62
     3
100
AcDbLine
 10
25675.58133805072
 20
5658.418981912617
 30
0.0
 11
25487.43392950187
 21
3948.859679115327
 31
0.0
  0
LINE
  5
11E
330
1F
100
AcDbEntity
  8
1
  6
CONTINUOUS
 62
     3
100
AcDbLine
 10
25942.41047812993
 20
3789.595722069238
 30
0.0
 11
25942.41047813408
 21
3789.595722069598
 31
0.0
  0
LINE
  5
11F
330
1F
100
AcDbEntity
  8
1
  6
CONTINUOUS
 62
     3
100
AcDbLine
 10
25741.09760261911
 20
5654.259010828688
 30
0.0
 11
26241.19496278799
 21
5583.974910397947
 31
0.0
  0
LINE
  5
120
330
1F
100
AcDbEntity
  8
1
  6
CONTINUOUS
 62
     3
100
AcDbLine
 10
26230.7569592334
 20
5509.704808190718
 30
0.0
 11
25666.31950082368
 21
5589.031319732918
 31
0.0
  0
LINE
  5
121
330
1F
100
AcDbEntity
  8
1
  6
CONTINUOUS
 62
     3
100
AcDbLine
 10
25741.09760261911
 20
5654.259010828688
 30
0.0
 11
25740.40110586322
 21
5649.300069508439
 31
0.0
  0
LINE
  5
122
330
1F
100
AcDbEntity
  8
1
  6
CONTINUOUS
 62
     3
100
AcDbLine
 10
25526.41403464949
 20
5684.430818668089
 30
0.0
 11
25527.34646679107
 21
5685.365362350929
 31
0.0
  0
LINE
  5
123
330
1F
100
AcDbEntity
  8
1
  6
CONTINUOUS
 62
     3
100
AcDbLine
 10
25582.14480754956
 20
5600.861301386469
 30
0.0
 11
25534.4747919941
 21
5607.560885162909
 31
0.0
  0
LINE
  5
124
330
1F
100
AcDbEntity
  8
1
  6
CONTINUOUS
 62
     3
100
AcDbLine
 10
25754.31001265902
 20
5748.329177750589
 30
0.0
 11
25741.09760261911
 21
5654.259010828688
 31
0.0
  0
LINE
  5
125
330
1F
100
AcDbEntity
  8
1
  6
CONTINUOUS
 62
     3
100
AcDbLine
 10
25540.41210913771
 20
5778.39056765257
 30
0.0
 11
25754.31001265902
 21
5748.329177750589
 31
0.0
  0
LINE
  5
126
330
1F
100
AcDbEntity
  8
1
  6
CONTINUOUS
 62
     3
100
AcDbLine
 10
25527.34646679107
 20
5685.365362350929
 30
0.0
 11
25576.77366261872
 21
5734.90448864491
 31
0.0
  0
LINE
  5
127
330
1F
100
AcDbEntity
  8
1
  6
CONTINUOUS
 62
     3
100
AcDbLine
 10
25527.34646679107
 20
5685.365362350929
 30
0.0
 11
25540.41210913771
 21
5778.39056765257
 31
0.0
  0
LINE
  5
128
330
1F
100
AcDbEntity
  8
1
  6
CONTINUOUS
 62
     3
100
AcDbLine
 10
25740.40110586322
 20
5649.300069508439
 30
0.0
 11
25596.34047742034
 21
5669.566668664769
 31
0.0
  0
LINE
  5
129
330
1F
100
AcDbEntity
  8
1
  6
CONTINUOUS
 62
     3
100
AcDbLine
 10
25576.77366261872
 20
5734.90448864491
 30
0.0
 11
25619.24686471893
 21
5692.524928673689
 31
0.0
  0
LINE
  5
12A
330
1F
100
AcDbEntity
  8
1
  6
CONTINUOUS
 62
     3
100
AcDbLine
 10
24390.34523072859
 20
5844.094876650788
 30
0.0
 11
25526.41403464949
 21
5684.430818668089
 31
0.0
  0
LINE
  5
12B
330
1F
100
AcDbEntity
  8
1
  6
CONTINUOUS
 62
     3
100
AcDbLine
 10
24398.70199536854
 20
5900.10405468448
 30
0.0
 11
24319.57786701001
 21
5911.909659772928
 31
0.0
  0
LINE
  5
12C
330
1F
100
AcDbEntity
  8
1
  6
CONTINUOUS
 62
     3
100
AcDbLine
 10
25460.14109893712
 20
5618.007804431649
 30
0.0
 11
24379.27708746794
 21
5769.913334803308
 31
0.0
  0
LINE
  5
12D
330
1F
100
AcDbEntity
  8
1
  6
CONTINUOUS
 62
     3
100
AcDbLine
 10
23211.58007182014
 20
6236.970719817529
 30
0.0
 11
28053.99092796645
 21
5556.414256122798
 31
0.0
  0
LINE
  5
12E
330
1F
100
AcDbEntity
  8
1
  6
CONTINUOUS
 62
     3
100
AcDbLine
 10
23042.16389636489
 20
6109.306474650299
 30
0.0
 11
23211.58007182014
 21
6236.970719817529
 31
0.0
  0
LINE
  5
12F
330
1F
100
AcDbEntity
  8
1
  6
CONTINUOUS
 62
     3
100
AcDbLine
 10
22831.26691124058
 20
4021.284590781457
 30
0.0
 11
25373.78598000676
 21
3663.956838610307
 31
0.0
  0
LINE
  5
130
330
1F
100
AcDbEntity
  8
1
  6
CONTINUOUS
 62
     3
100
AcDbLine
 10
24148.36074099708
 20
4003.256851362659
 30
0.0
 11
25526.41403464949
 21
5684.430818668089
 31
0.0
  0
LINE
  5
131
330
1F
100
AcDbEntity
  8
1
  6
CONTINUOUS
 62
     3
100
AcDbLine
 10
25619.24686471893
 20
5692.524928673689
 30
0.0
 11
24190.8339430973
 21
3960.877291391449
 31
0.0
  0
LINE
  5
132
330
1F
100
AcDbEntity
  8
1
  6
CONTINUOUS
 62
     3
100
AcDbLine
 10
24139.42166502107
 20
3862.340341899637
 30
0.0
 11
24398.70199536854
 21
5900.10405468448
 31
0.0
  0
LINE
  5
133
330
1F
100
AcDbEntity
  8
1
  6
CONTINUOUS
 62
     3
100
AcDbLine
 10
24319.57786701001
 20
5911.909659772928
 30
0.0
 11
24060.29753666256
 21
3874.145946988088
 31
0.0
  0
LINE
  5
134
330
1F
100
AcDbEntity
  8
1
  6
CONTINUOUS
 62
     3
100
AcDbLine
 10
23031.72591379309
 20
6035.03636949606
 30
0.0
 11
24311.12093367655
 21
5855.22912548722
 31
0.0
  0
LINE
  5
135
330
1F
100
AcDbEntity
  8
1
  6
CONTINUOUS
 62
     3
100
AcDbLine
 10
24300.05279044773
 20
5781.04758363524
 30
0.0
 11
23021.28793122089
 21
5960.766264339067
 31
0.0
  0
LINE
  5
136
330
1F
100
AcDbEntity
  8
1
  6
CONTINUOUS
 62
     3
100
AcDbLine
 10
23021.28793122089
 20
5960.766264339067
 30
0.0
 11
23042.16389636489
 21
6109.306474650299
 31
0.0
  0
LINE
  5
137
330
1F
100
AcDbEntity
  8
1
  6
CONTINUOUS
 62
     3
100
AcDbLine
 10
24174.15164619792
 20
4095.109618076289
 30
0.0
 11
24231.90728632355
 21
4086.992592204269
 31
0.0
  0
LINE
  5
138
330
1F
100
AcDbEntity
  8
1
  6
CONTINUOUS
 62
     3
100
AcDbLine
 10
23015.99212780143
 20
4257.878323510258
 30
0.0
 11
24094.92734917771
 21
4106.243866908217
 31
0.0
  0
LINE
  5
139
330
1F
100
AcDbEntity
  8
1
  6
CONTINUOUS
 62
     3
100
AcDbLine
 10
24069.24476576914
 20
3934.112586380108
 30
0.0
 11
22843.23156211856
 21
4106.417505377458
 31
0.0
  0
LINE
  5
13A
330
1F
100
AcDbEntity
  8
1
  6
CONTINUOUS
 62
     3
100
AcDbLine
 10
22846.5759523462
 20
4130.214078343028
 30
0.0
 11
22831.26691124058
 21
4021.284590781457
 31
0.0
  0
LINE
  5
13B
330
1F
100
AcDbEntity
  8
1
  6
CONTINUOUS
 62
     3
100
AcDbLine
 10
24060.29753666256
 20
3874.145946988088
 30
0.0
 11
24139.42166502107
 21
3862.340341899637
 31
0.0
  0
LINE
  5
13C
330
1F
100
AcDbEntity
  8
1
  6
CONTINUOUS
 62
     3
100
AcDbLine
 10
24190.8339430973
 20
3960.877291391449
 30
0.0
 11
24148.36074099708
 21
4003.256851362659
 31
0.0
  0
LINE
  5
13D
330
1F
100
AcDbEntity
  8
1
  6
CONTINUOUS
 62
     3
100
AcDbLine
 10
27405.94971204391
 20
2251.060212561557
 30
0.0
 11
27558.10510471353
 21
2252.49564079429
 31
0.0
  0
LINE
  5
13E
330
1F
100
AcDbEntity
  8
1
  6
CONTINUOUS
 62
     3
100
AcDbLine
 10
26502.17729577021
 20
3592.186217837953
 30
0.0
 11
26332.26321820269
 21
3616.06608412817
 31
0.0
  0
LINE
  5
13F
330
1F
100
AcDbEntity
  8
1
  6
CONTINUOUS
 62
     3
100
AcDbLine
 10
26608.67169466741
 20
3490.404969509778
 30
0.0
 11
27822.21797769813
 21
3319.852161942717
 31
0.0
  0
LINE
  5
140
330
1F
100
AcDbEntity
  8
1
  6
CONTINUOUS
 62
     3
100
AcDbLine
 10
23218.50122655494
 20
6365.740972701594
 30
0.0
 11
23160.44502790918
 21
6325.258918419931
 31
0.0
  0
LINE
  5
141
330
1F
100
AcDbEntity
  8
1
  6
CONTINUOUS
 62
     3
100
AcDbLine
 10
23822.67597447578
 20
6167.543577930282
 30
0.0
 11
23897.70112328734
 21
6192.290377602362
 31
0.0
  0
LINE
  5
142
330
1F
100
AcDbEntity
  8
1
  6
CONTINUOUS
 62
     3
100
AcDbLine
 10
23160.44502790918
 20
6325.258918419931
 30
0.0
 11
23822.67597447578
 21
6167.543577930282
 31
0.0
  0
LINE
  5
143
330
1F
100
AcDbEntity
  8
1
  6
CONTINUOUS
 62
     3
100
AcDbLine
 10
25501.13268704671
 20
6438.635808807011
 30
0.0
 11
25490.96501922639
 21
6271.294775609832
 31
0.0
  0
LINE
  5
144
330
1F
100
AcDbEntity
  8
1
  6
CONTINUOUS
 62
     3
100
AcDbLine
 10
25490.96501922639
 20
6271.294775609832
 30
0.0
 11
25432.82207151194
 21
6023.451820813002
 31
0.0
  0
LINE
  5
145
330
1F
100
AcDbEntity
  8
1
  6
CONTINUOUS
 62
     3
100
AcDbLine
 10
25432.82207151194
 20
6023.451820813002
 30
0.0
 11
24703.40481606615
 21
6134.702748679662
 31
0.0
  0
LINE
  5
146
330
1F
100
AcDbEntity
  8
1
  6
CONTINUOUS
 62
     3
100
AcDbLine
 10
24703.40481606615
 20
6134.702748679662
 30
0.0
 11
24667.50401300161
 21
6397.997774771101
 31
0.0
  0
LINE
  5
147
330
1F
100
AcDbEntity
  8
1
  6
CONTINUOUS
 62
     3
100
AcDbLine
 10
24571.14666101606
 20
6413.849116563251
 30
0.0
 11
25490.96501922639
 21
6271.294775609832
 31
0.0
  0
LINE
  5
148
330
1F
100
AcDbEntity
  8
1
  6
CONTINUOUS
 62
     3
100
AcDbLine
 10
26584.49561030992
 20
6506.694518518251
 30
0.0
 11
26703.79443873444
 21
6516.017126110754
 31
0.0
  0
LINE
  5
149
330
1F
100
AcDbEntity
  8
1
  6
CONTINUOUS
 62
     3
100
AcDbLine
 10
26387.70014672519
 20
6664.813288790682
 30
0.0
 11
26584.49561030992
 21
6506.694518518251
 31
0.0
  0
LINE
  5
14A
330
1F
100
AcDbEntity
  8
1
  6
CONTINUOUS
 62
     3
100
AcDbLine
 10
26586.01379045892
 20
6315.29799520593
 30
0.0
 11
26567.82636373876
 21
6117.642830932181
 31
0.0
  0
LINE
  5
14B
330
1F
100
AcDbEntity
  8
1
  6
CONTINUOUS
 62
     3
100
AcDbLine
 10
26575.16535160534
 20
6421.753124706832
 30
0.0
 11
26586.01379045892
 21
6315.29799520593
 31
0.0
  0
LINE
  5
14C
330
1F
100
AcDbEntity
  8
1
  6
CONTINUOUS
 62
     3
100
AcDbLine
 10
26513.19494182859
 20
6494.613002844052
 30
0.0
 11
26575.16535160534
 21
6421.753124706832
 31
0.0
  0
LINE
  5
14D
330
1F
100
AcDbEntity
  8
1
  6
CONTINUOUS
 62
     3
100
AcDbLine
 10
26513.19494182859
 20
6494.613002844052
 30
0.0
 11
26387.22587651915
 21
6498.645269669741
 31
0.0
  0
LINE
  5
14E
330
1F
100
AcDbEntity
  8
1
  6
CONTINUOUS
 62
     3
100
AcDbLine
 10
26311.23838175706
 20
6702.954317414412
 30
0.0
 11
26513.19494182859
 21
6494.613002844052
 31
0.0
  0
LINE
  5
14F
330
1F
100
AcDbEntity
  8
1
  6
CONTINUOUS
 62
     3
100
AcDbLine
 10
26736.53716113475
 20
6487.463823642872
 30
0.0
 11
26513.19494182859
 21
6494.613002844052
 31
0.0
  0
LINE
  5
150
330
1F
100
AcDbEntity
  8
1
  6
CONTINUOUS
 62
     3
100
AcDbLine
 10
26806.06538925179
 20
6498.604505810482
 30
0.0
 11
26918.68420409348
 21
6459.050466428172
 31
0.0
  0
LINE
  5
151
330
1F
100
AcDbEntity
  8
1
  6
CONTINUOUS
 62
     3
100
AcDbLine
 10
26736.53716113475
 20
6487.463823642872
 30
0.0
 11
26806.06538925179
 21
6498.604505810482
 31
0.0
  0
LINE
  5
152
330
1F
100
AcDbEntity
  8
1
  6
CONTINUOUS
 62
     3
100
AcDbLine
 10
26444.01185214929
 20
6742.560621180362
 30
0.0
 11
26736.53716113475
 21
6487.463823642872
 31
0.0
  0
LINE
  5
153
330
1F
100
AcDbEntity
  8
1
  6
CONTINUOUS
 62
     3
100
AcDbLine
 10
27755.81983213204
 20
6063.82571646516
 30
0.0
 11
23544.4780865534
 21
6843.290726550523
 31
0.0
  0
LINE
  5
154
330
1F
100
AcDbEntity
  8
1
  6
CONTINUOUS
 62
     3
100
AcDbLine
 10
26575.16535160534
 20
6421.753124706832
 30
0.0
 11
27213.10694652037
 21
6288.444559271523
 31
0.0
  0
LINE
  5
155
330
1F
100
AcDbEntity
  8
1
  6
CONTINUOUS
 62
     3
100
AcDbLine
 10
26918.68420409348
 20
6459.050466428172
 30
0.0
 11
27462.15118190733
 21
6315.847256836633
 31
0.0
  0
LINE
  5
156
330
1F
100
AcDbEntity
  8
1
  6
CONTINUOUS
 62
     3
100
AcDbLine
 10
23264.09754588747
 20
6793.151425906031
 30
0.0
 11
23274.29479597586
 21
6861.978688944294
 31
0.0
  0
LINE
  5
157
330
1F
100
AcDbEntity
  8
1
  6
CONTINUOUS
 62
     3
100
AcDbLine
 10
23451.95716551563
 20
6765.318682915872
 30
0.0
 11
23264.09754588747
 21
6793.151425906031
 31
0.0
  0
LINE
  5
158
330
1F
100
AcDbEntity
  8
1
  6
CONTINUOUS
 62
     3
100
AcDbLine
 10
23274.29479597586
 20
6861.978688944294
 30
0.0
 11
23275.37047903696
 21
6869.239109189973
 31
0.0
  0
LINE
  5
159
330
1F
100
AcDbEntity
  8
1
  6
CONTINUOUS
 62
     3
100
AcDbLine
 10
23425.02027546595
 20
6839.647633760581
 30
0.0
 11
23451.95716551563
 21
6765.318682915872
 31
0.0
  0
LINE
  5
15A
330
1F
100
AcDbEntity
  8
1
  6
CONTINUOUS
 62
     3
100
AcDbLine
 10
23425.02027546595
 20
6839.647633760581
 30
0.0
 11
23274.29479597586
 21
6861.978688944294
 31
0.0
  0
LINE
  5
15B
330
1F
100
AcDbEntity
  8
1
  6
CONTINUOUS
 62
     3
100
AcDbLine
 10
23305.4252709391
 20
6911.703471086322
 30
0.0
 11
23320.72359852416
 21
6914.188032178633
 31
0.0
  0
LINE
  5
15C
330
1F
100
AcDbEntity
  8
1
  6
CONTINUOUS
 62
     3
100
AcDbLine
 10
23286.08274695001
 20
6894.992697603094
 30
0.0
 11
23305.4252709391
 21
6911.703471086322
 31
0.0
  0
LINE
  5
15D
330
1F
100
AcDbEntity
  8
1
  6
CONTINUOUS
 62
     3
100
AcDbLine
 10
23275.37047903696
 20
6869.239109189973
 30
0.0
 11
23286.08274695001
 21
6894.992697603094
 31
0.0
  0
LINE
  5
15E
330
1F
100
AcDbEntity
  8
1
  6
CONTINUOUS
 62
     3
100
AcDbLine
 10
23253.09327825774
 20
6718.877124880632
 30
0.0
 11
23264.09754588747
 21
6793.151425906031
 31
0.0
  0
LINE
  5
15F
330
1F
100
AcDbEntity
  8
1
  6
CONTINUOUS
 62
     3
100
AcDbLine
 10
23391.33914496982
 20
6702.433993189202
 30
0.0
 11
23253.09327825774
 21
6718.877124880632
 31
0.0
  0
LINE
  5
160
330
1F
100
AcDbEntity
  8
1
  6
CONTINUOUS
 62
     3
100
AcDbLine
 10
23432.38999444956
 20
6709.250036761662
 30
0.0
 11
23391.33914496982
 21
6702.433993189202
 31
0.0
  0
LINE
  5
161
330
1F
100
AcDbEntity
  8
1
  6
CONTINUOUS
 62
     3
100
AcDbLine
 10
23450.18825858946
 20
6733.375966586332
 30
0.0
 11
23432.38999444956
 21
6709.250036761662
 31
0.0
  0
LINE
  5
162
330
1F
100
AcDbEntity
  8
1
  6
CONTINUOUS
 62
     3
100
AcDbLine
 10
23451.95716551563
 20
6765.318682915872
 30
0.0
 11
23450.18825858946
 21
6733.375966586332
 31
0.0
  0
LINE
  5
163
330
1F
100
AcDbEntity
  8
1
  6
CONTINUOUS
 62
     3
100
AcDbLine
 10
23411.88278576042
 20
6875.898879718973
 30
0.0
 11
23425.02027546595
 21
6839.647633760581
 31
0.0
  0
LINE
  5
164
330
1F
100
AcDbEntity
  8
1
  6
CONTINUOUS
 62
     3
100
AcDbLine
 10
23320.72359852416
 20
6914.188032178633
 30
0.0
 11
23411.88278576042
 21
6875.898879718973
 31
0.0
  0
LINE
  5
165
330
1F
100
AcDbEntity
  8
1
  6
CONTINUOUS
 62
     3
100
AcDbLine
 10
23308.31069542686
 20
7010.7041781588
 30
0.0
 11
23407.69168433289
 21
6960.88009220701
 31
0.0
  0
LINE
  5
166
330
1F
100
AcDbEntity
  8
1
  6
CONTINUOUS
 62
     3
100
AcDbLine
 10
23137.57991397647
 20
6512.154500589781
 30
0.0
 11
23218.50122655494
 21
6365.740972701594
 31
0.0
  0
LINE
  5
167
330
1F
100
AcDbEntity
  8
1
  6
CONTINUOUS
 62
     3
100
AcDbLine
 10
23143.57372457028
 20
6637.38461817066
 30
0.0
 11
23137.57991397647
 21
6512.154500589781
 31
0.0
  0
LINE
  5
168
330
1F
100
AcDbEntity
  8
1
  6
CONTINUOUS
 62
     3
100
AcDbLine
 10
23226.13593094992
 20
6653.993697794961
 30
0.0
 11
23143.57372457028
 21
6637.38461817066
 31
0.0
  0
LINE
  5
169
330
1F
100
AcDbEntity
  8
1
  6
CONTINUOUS
 62
     3
100
AcDbLine
 10
23258.63146847026
 20
6866.599001474749
 30
0.0
 11
23226.13593094992
 21
6653.993697794961
 31
0.0
  0
LINE
  5
16A
330
1F
100
AcDbEntity
  8
1
  6
CONTINUOUS
 62
     3
100
AcDbLine
 10
23278.24337657502
 20
6947.573340383452
 30
0.0
 11
23258.63146847026
 21
6866.599001474749
 31
0.0
  0
LINE
  5
16B
330
1F
100
AcDbEntity
  8
1
  6
CONTINUOUS
 62
     3
100
AcDbLine
 10
23308.31069542686
 20
7010.7041781588
 30
0.0
 11
23278.24337657502
 21
6947.573340383452
 31
0.0
  0
LINE
  5
16C
330
1F
100
AcDbEntity
  8
1
  6
CONTINUOUS
 62
     3
100
AcDbLine
 10
23779.43319599091
 20
6979.194885871012
 30
0.0
 11
23308.31069542686
 21
7010.7041781588
 31
0.0
  0
LINE
  5
16D
330
1F
100
AcDbEntity
  8
1
  6
CONTINUOUS
 62
     3
100
AcDbLine
 10
23407.69168433289
 20
6960.88009220701
 30
0.0
 11
26575.16535160534
 21
6421.753124706832
 31
0.0
  0
LINE
  5
16E
330
1F
100
AcDbEntity
  8
1
  6
CONTINUOUS
 62
     3
100
AcDbLine
 10
23987.09486551478
 20
6932.881036091682
 30
0.0
 11
23862.3499258359
 21
6976.589178614263
 31
0.0
  0
LINE
  5
16F
330
1F
100
AcDbEntity
  8
1
  6
CONTINUOUS
 62
     3
100
AcDbLine
 10
23844.46033638435
 20
6982.958397857051
 30
0.0
 11
23779.43319599091
 21
6979.194885871012
 31
0.0
  0
LINE
  5
170
330
1F
100
AcDbEntity
  8
1
  6
CONTINUOUS
 62
     3
100
AcDbLine
 10
23862.3499258359
 20
6976.589178614263
 30
0.0
 11
23844.46033638435
 21
6982.958397857051
 31
0.0
  0
LINE
  5
171
330
1F
100
AcDbEntity
  8
1
  6
CONTINUOUS
 62
     3
100
AcDbLine
 10
24182.59579070815
 20
7091.189748404092
 30
0.0
 11
23862.3499258359
 21
6976.589178614263
 31
0.0
  0
LINE
  5
172
330
1F
100
AcDbEntity
  8
1
  6
CONTINUOUS
 62
     3
100
AcDbLine
 10
24577.60558245573
 20
7154.718440073221
 30
0.0
 11
23987.09486551478
 21
6932.881036091682
 31
0.0
  0
LINE
  5
173
330
1F
100
AcDbEntity
  8
1
  6
CONTINUOUS
 62
     3
100
AcDbLine
 10
24540.15137177853
 20
7198.946151748612
 30
0.0
 11
24182.59579070815
 21
7091.189748404092
 31
0.0
  0
LINE
  5
174
330
1F
100
AcDbEntity
  8
1
  6
CONTINUOUS
 62
     3
100
AcDbLine
 10
24540.15137177853
 20
7198.946151748612
 30
0.0
 11
24577.60558245573
 21
7154.718440073221
 31
0.0
  0
LINE
  5
175
330
1F
100
AcDbEntity
  8
1
  6
CONTINUOUS
 62
     3
100
AcDbLine
 10
24802.10774692804
 20
7139.500718092072
 30
0.0
 11
24829.60322247895
 21
7148.432524978452
 31
0.0
  0
LINE
  5
176
330
1F
100
AcDbEntity
  8
1
  6
CONTINUOUS
 62
     3
100
AcDbLine
 10
24802.10774692804
 20
7139.500718092072
 30
0.0
 11
24796.26910006723
 21
6759.837282546442
 31
0.0
  0
LINE
  5
177
330
1F
100
AcDbEntity
  8
1
  6
CONTINUOUS
 62
     3
100
AcDbLine
 10
24829.60322247895
 20
7148.432524978452
 30
0.0
 11
24912.55152167536
 21
7156.289244577119
 31
0.0
  0
LINE
  5
178
330
1F
100
AcDbEntity
  8
1
  6
CONTINUOUS
 62
     3
100
AcDbLine
 10
24655.68632960872
 20
7091.936244398482
 30
0.0
 11
24802.10774692804
 21
7139.500718092072
 31
0.0
  0
LINE
  5
179
330
1F
100
AcDbEntity
  8
1
  6
CONTINUOUS
 62
     3
100
AcDbLine
 10
24703.36977744873
 20
7225.749876819521
 30
0.0
 11
24961.48521512286
 21
7212.548517375911
 31
0.0
  0
LINE
  5
17A
330
1F
100
AcDbEntity
  8
1
  6
CONTINUOUS
 62
     3
100
AcDbLine
 10
24548.85140086674
 20
7209.030298729332
 30
0.0
 11
24703.36977744873
 21
7225.749876819521
 31
0.0
  0
LINE
  5
17B
330
1F
100
AcDbEntity
  8
1
  6
CONTINUOUS
 62
     3
100
AcDbLine
 10
24541.45391598747
 20
7198.155775801481
 30
0.0
 11
24548.85140086674
 21
7209.030298729332
 31
0.0
  0
LINE
  5
17C
330
1F
100
AcDbEntity
  8
1
  6
CONTINUOUS
 62
     3
100
AcDbLine
 10
24453.04586088226
 20
6977.493771772831
 30
0.0
 11
24655.68632960872
 21
7091.936244398482
 31
0.0
  0
LINE
  5
17D
330
1F
100
AcDbEntity
  8
1
  6
CONTINUOUS
 62
     3
100
AcDbLine
 10
24537.46011026241
 20
6603.257259508441
 30
0.0
 11
24453.21002901359
 21
6818.723815414191
 31
0.0
  0
LINE
  5
17E
330
1F
100
AcDbEntity
  8
1
  6
CONTINUOUS
 62
     3
100
AcDbLine
 10
24427.26232277178
 20
6916.890171951133
 30
0.0
 11
24453.04586088226
 21
6977.493771772831
 31
0.0
  0
LINE
  5
17F
330
1F
100
AcDbEntity
  8
1
  6
CONTINUOUS
 62
     3
100
AcDbLine
 10
24453.21002901359
 20
6818.723815414191
 30
0.0
 11
24427.26232277178
 21
6916.890171951133
 31
0.0
  0
LINE
  5
180
330
1F
100
AcDbEntity
  8
1
  6
CONTINUOUS
 62
     3
100
AcDbLine
 10
24012.19174770102
 20
6506.761175803421
 30
0.0
 11
23143.57372457028
 21
6637.38461817066
 31
0.0
  0
LINE
  5
181
330
1F
100
AcDbEntity
  8
1
  6
CONTINUOUS
 62
     3
100
AcDbLine
 10
24667.50401300161
 20
6397.997774771101
 30
0.0
 11
24537.46011026241
 21
6603.257259508441
 31
0.0
  0
LINE
  5
182
330
1F
100
AcDbEntity
  8
1
  6
CONTINUOUS
 62
     3
100
AcDbLine
 10
25482.43742739764
 20
6641.368336225233
 30
0.0
 11
24453.21002901359
 21
6818.723815414191
 31
0.0
  0
LINE
  5
183
330
1F
100
AcDbEntity
  8
1
  6
CONTINUOUS
 62
     3
100
AcDbLine
 10
24912.55152167536
 20
7156.289244577119
 30
0.0
 11
25227.05394898844
 21
7125.476125357552
 31
0.0
  0
LINE
  5
184
330
1F
100
AcDbEntity
  8
1
  6
CONTINUOUS
 62
     3
100
AcDbLine
 10
24961.48521512286
 20
7212.548517375911
 30
0.0
 11
25412.46011219919
 21
7153.749310763683
 31
0.0
  0
LINE
  5
185
330
1F
100
AcDbEntity
  8
1
  6
CONTINUOUS
 62
     3
100
AcDbLine
 10
26051.76617340996
 20
6954.571033980842
 30
0.0
 11
26387.70014672519
 21
6664.813288790682
 31
0.0
  0
LINE
  5
186
330
1F
100
AcDbEntity
  8
1
  6
CONTINUOUS
 62
     3
100
AcDbLine
 10
26130.5650604956
 20
6982.483537324172
 30
0.0
 11
26051.76617340996
 21
6954.571033980842
 31
0.0
  0
LINE
  5
187
330
1F
100
AcDbEntity
  8
1
  6
CONTINUOUS
 62
     3
100
AcDbLine
 10
25486.81582168135
 20
6618.801462236933
 30
0.0
 11
25501.13268704671
 21
6438.635808807011
 31
0.0
  0
LINE
  5
188
330
1F
100
AcDbEntity
  8
1
  6
CONTINUOUS
 62
     3
100
AcDbLine
 10
25489.93862523894
 20
7083.845063849151
 30
0.0
 11
25618.02393167315
 21
7063.561160859662
 31
0.0
  0
LINE
  5
189
330
1F
100
AcDbEntity
  8
1
  6
CONTINUOUS
 62
     3
100
AcDbLine
 10
25489.93862523894
 20
7083.845063849151
 30
0.0
 11
25554.43030889444
 21
6628.963113009034
 31
0.0
  0
LINE
  5
18A
330
1F
100
AcDbEntity
  8
1
  6
CONTINUOUS
 62
     3
100
AcDbLine
 10
25409.66328224249
 20
7096.55766387428
 30
0.0
 11
25452.29287223831
 21
7089.806737542221
 31
0.0
  0
LINE
  5
18B
330
1F
100
AcDbEntity
  8
1
  6
CONTINUOUS
 62
     3
100
AcDbLine
 10
25409.66328224249
 20
7096.55766387428
 30
0.0
 11
25406.14270757897
 21
6654.786108625612
 31
0.0
  0
LINE
  5
18C
330
1F
100
AcDbEntity
  8
1
  6
CONTINUOUS
 62
     3
100
AcDbLine
 10
25452.29287223831
 20
7089.806737542221
 30
0.0
 11
25489.93862523894
 21
7083.845063849151
 31
0.0
  0
LINE
  5
18D
330
1F
100
AcDbEntity
  8
1
  6
CONTINUOUS
 62
     3
100
AcDbLine
 10
25482.43742739764
 20
6641.368336225233
 30
0.0
 11
25452.29287223831
 21
7089.806737542221
 31
0.0
  0
LINE
  5
18E
330
1F
100
AcDbEntity
  8
1
  6
CONTINUOUS
 62
     3
100
AcDbLine
 10
26049.88092573951
 20
6929.281890935882
 30
0.0
 11
26311.23838175706
 21
6702.954317414412
 31
0.0
  0
LINE
  5
18F
330
1F
100
AcDbEntity
  8
1
  6
CONTINUOUS
 62
     3
100
AcDbLine
 10
25942.47179222696
 20
6984.415716029921
 30
0.0
 11
26049.88092573951
 21
6929.281890935882
 31
0.0
  0
LINE
  5
190
330
1F
100
AcDbEntity
  8
1
  6
CONTINUOUS
 62
     3
100
AcDbLine
 10
25618.02393167315
 20
7063.561160859662
 30
0.0
 11
25942.47179222696
 21
6984.415716029921
 31
0.0
  0
LINE
  5
191
330
1F
100
AcDbEntity
  8
1
  6
CONTINUOUS
 62
     3
100
AcDbLine
 10
25227.05394898844
 20
7125.476125357552
 30
0.0
 11
25409.66328224249
 21
7096.55766387428
 31
0.0
  0
LINE
  5
192
330
1F
100
AcDbEntity
  8
1
  6
CONTINUOUS
 62
     3
100
AcDbLine
 10
26387.22587651915
 20
6498.645269669741
 30
0.0
 11
25482.43742739764
 21
6641.368336225233
 31
0.0
  0
LINE
  5
193
330
1F
100
AcDbEntity
  8
1
  6
CONTINUOUS
 62
     3
100
AcDbLine
 10
26130.5650604956
 20
6982.483537324172
 30
0.0
 11
26444.01185214929
 21
6742.560621180362
 31
0.0
  0
LINE
  5
194
330
1F
100
AcDbEntity
  8
1
  6
CONTINUOUS
 62
     3
100
AcDbLine
 10
26048.12965588673
 20
7018.177618201472
 30
0.0
 11
26130.5650604956
 21
6982.483537324172
 31
0.0
  0
LINE
  5
195
330
1F
100
AcDbEntity
  8
1
  6
CONTINUOUS
 62
     3
100
AcDbLine
 10
25875.22463150827
 20
7067.447710460873
 30
0.0
 11
26048.12965588673
 21
7018.177618201472
 31
0.0
  0
LINE
  5
196
330
1F
100
AcDbEntity
  8
1
  6
CONTINUOUS
 62
     3
100
AcDbLine
 10
25412.46011219919
 20
7153.749310763683
 30
0.0
 11
25875.22463150827
 21
7067.447710460873
 31
0.0
  0
LINE
  5
197
330
1F
100
AcDbEntity
  8
1
  6
CONTINUOUS
 62
     3
100
AcDbLine
 10
25490.96501922639
 20
6271.294775609832
 30
0.0
 11
26854.14897477752
 21
6060.027204521451
 31
0.0
  0
LINE
  5
198
330
1F
100
AcDbEntity
  8
1
  6
CONTINUOUS
 62
     3
100
AcDbLine
 10
26501.74932913229
 20
5857.246249316931
 30
0.0
 11
25432.82207151194
 21
6023.451820813002
 31
0.0
  0
LINE
  5
199
330
1F
100
AcDbEntity
  8
1
  6
CONTINUOUS
 62
     3
100
AcDbLine
 10
26567.82636373876
 20
6117.642830932181
 30
0.0
 11
26501.74932913229
 21
5857.246249316931
 31
0.0
  0
LINE
  5
19A
330
1F
100
AcDbEntity
  8
1
  6
CONTINUOUS
 62
     3
100
AcDbLine
 10
26501.74932913229
 20
5857.246249316931
 30
0.0
 11
26801.54524226077
 21
5814.843018526582
 31
0.0
  0
LINE
  5
19B
330
1F
100
AcDbEntity
  8
1
  6
CONTINUOUS
 62
     3
100
AcDbLine
 10
27669.07479114515
 20
6156.369008625224
 30
0.0
 11
27857.65343832704
 21
6063.202169362724
 31
0.0
  0
LINE
  5
19C
330
1F
100
AcDbEntity
  8
1
  6
CONTINUOUS
 62
     3
100
AcDbLine
 10
27213.10694652037
 20
6288.444559271523
 30
0.0
 11
27669.07479114515
 21
6156.369008625224
 31
0.0
  0
LINE
  5
19D
330
1F
100
AcDbEntity
  8
1
  6
CONTINUOUS
 62
     3
100
AcDbLine
 10
27857.65343832704
 20
6063.202169362724
 30
0.0
 11
27757.96878673639
 21
6064.734054978823
 31
0.0
  0
LINE
  5
19E
330
1F
100
AcDbEntity
  8
1
  6
CONTINUOUS
 62
     3
100
AcDbLine
 10
27857.65343832704
 20
6063.202169362724
 30
0.0
 11
27845.45405075841
 21
5954.424203012931
 31
0.0
  0
LINE
  5
19F
330
1F
100
AcDbEntity
  8
1
  6
CONTINUOUS
 62
     3
100
AcDbLine
 10
27720.91251368748
 20
5978.447611510433
 30
0.0
 11
27845.45405075841
 21
5954.424203012931
 31
0.0
  0
LINE
  5
1A0
330
1F
100
AcDbEntity
  8
1
  6
CONTINUOUS
 62
     3
100
AcDbLine
 10
27708.85016072532
 20
6002.192643266771
 30
0.0
 11
27720.91251368748
 21
5978.447611510433
 31
0.0
  0
LINE
  5
1A1
330
1F
100
AcDbEntity
  8
1
  6
CONTINUOUS
 62
     3
100
AcDbLine
 10
27755.81983213204
 20
6063.82571646516
 30
0.0
 11
27708.85016072532
 21
6002.192643266771
 31
0.0
  0
LINE
  5
1A2
330
1F
100
AcDbEntity
  8
1
  6
CONTINUOUS
 62
     3
100
AcDbLine
 10
27462.15118190733
 20
6315.847256836633
 30
0.0
 11
27805.74335335321
 21
6199.223699601781
 31
0.0
  0
LINE
  5
1A3
330
1F
100
AcDbEntity
  8
1
  6
CONTINUOUS
 62
     3
100
AcDbLine
 10
27952.77067393553
 20
5732.088897470122
 30
0.0
 11
27544.17611581855
 21
5790.636798361334
 31
0.0
  0
LINE
  5
1A4
330
1F
100
AcDbEntity
  8
1
  6
CONTINUOUS
 62
     3
100
AcDbLine
 10
27930.46606122834
 20
5617.247700655483
 30
0.0
 11
27817.71104554348
 21
5589.621228021892
 31
0.0
  0
LINE
  5
1A5
330
1F
100
AcDbEntity
  8
1
  6
CONTINUOUS
 62
     3
100
AcDbLine
 10
27952.77067393553
 20
5732.088897470122
 30
0.0
 11
27930.46606122834
 21
5617.247700655483
 31
0.0
  0
LINE
  5
1A6
330
1F
100
AcDbEntity
  8
1
  6
CONTINUOUS
 62
     3
100
AcDbLine
 10
28032.24705654104
 20
5729.737839454031
 30
0.0
 11
27952.77067393553
 21
5732.088897470122
 31
0.0
  0
LINE
  5
1A7
330
1F
100
AcDbEntity
  8
1
  6
CONTINUOUS
 62
     3
100
AcDbLine
 10
28067.25764796407
 20
5862.986687651584
 30
0.0
 11
28032.24705654104
 21
5729.737839454031
 31
0.0
  0
LINE
  5
1A8
330
1F
100
AcDbEntity
  8
1
  6
CONTINUOUS
 62
     3
100
AcDbLine
 10
28003.7456137396
 20
5921.067487840591
 30
0.0
 11
27994.48327561111
 21
5908.436251446902
 31
0.0
  0
LINE
  5
1A9
330
1F
100
AcDbEntity
  8
1
  6
CONTINUOUS
 62
     3
100
AcDbLine
 10
27992.94434387629
 20
5900.083316939664
 30
0.0
 11
28067.25764796407
 21
5862.986687651584
 31
0.0
  0
LINE
  5
1AA
330
1F
100
AcDbEntity
  8
1
  6
CONTINUOUS
 62
     3
100
AcDbLine
 10
27994.48327561111
 20
5908.436251446902
 30
0.0
 11
27992.94434387629
 21
5900.083316939664
 31
0.0
  0
LINE
  5
1AB
330
1F
100
AcDbEntity
  8
1
  6
CONTINUOUS
 62
     3
100
AcDbLine
 10
27971.99346534456
 20
5913.265381587095
 30
0.0
 11
27994.48327561111
 21
5908.436251446902
 31
0.0
  0
LINE
  5
1AC
330
1F
100
AcDbEntity
  8
1
  6
CONTINUOUS
 62
     3
100
AcDbLine
 10
27966.14383027448
 20
5922.692060479299
 30
0.0
 11
27971.99346534456
 21
5913.265381587095
 31
0.0
  0
LINE
  5
1AD
330
1F
100
AcDbEntity
  8
1
  6
CONTINUOUS
 62
     3
100
AcDbLine
 10
27990.70605154203
 20
6067.377481442713
 30
0.0
 11
27966.14383027448
 21
5922.692060479299
 31
0.0
  0
LINE
  5
1AE
330
1F
100
AcDbEntity
  8
1
  6
CONTINUOUS
 62
     3
100
AcDbLine
 10
28020.1204868733
 20
6068.266859957711
 30
0.0
 11
27990.70605154203
 21
6067.377481442713
 31
0.0
  0
LINE
  5
1AF
330
1F
100
AcDbEntity
  8
1
  6
CONTINUOUS
 62
     3
100
AcDbLine
 10
27845.45405075841
 20
5954.424203012931
 30
0.0
 11
27944.7364052115
 21
5935.273158199171
 31
0.0
  0
LINE
  5
1B0
330
1F
100
AcDbEntity
  8
1
  6
CONTINUOUS
 62
     3
100
AcDbLine
 10
27958.79666784749
 20
6036.565364967882
 30
0.0
 11
27947.07866730948
 21
6061.827943543452
 31
0.0
  0
LINE
  5
1B1
330
1F
100
AcDbEntity
  8
1
  6
CONTINUOUS
 62
     3
100
AcDbLine
 10
27944.7364052115
 20
5935.273158199171
 30
0.0
 11
27958.79666784749
 21
6036.565364967882
 31
0.0
  0
LINE
  5
1B2
330
1F
100
AcDbEntity
  8
1
  6
CONTINUOUS
 62
     3
100
AcDbLine
 10
27947.07866730948
 20
6061.827943543452
 30
0.0
 11
27857.65343832704
 21
6063.202169362724
 31
0.0
  0
LINE
  5
1B3
330
1F
100
AcDbEntity
  8
1
  6
CONTINUOUS
 62
     3
100
AcDbLine
 10
28067.25764796407
 20
5862.986687651584
 30
0.0
 11
27519.67082810877
 21
5941.47257032474
 31
0.0
  0
LINE
  5
1B4
330
1F
100
AcDbEntity
  8
1
  6
CONTINUOUS
 62
     3
100
AcDbLine
 10
28024.61642099054
 20
5991.857338095283
 30
0.0
 11
28003.7456137396
 21
5921.067487840591
 31
0.0
  0
LINE
  5
1B5
330
1F
100
AcDbEntity
  8
1
  6
CONTINUOUS
 62
     3
100
AcDbLine
 10
28029.08198032985
 20
6053.058038938222
 30
0.0
 11
28024.61642099054
 21
5991.857338095283
 31
0.0
  0
LINE
  5
1B6
330
1F
100
AcDbEntity
  8
1
  6
CONTINUOUS
 62
     3
100
AcDbLine
 10
28021.59309898379
 20
6067.250381660581
 30
0.0
 11
28029.08198032985
 21
6053.058038938222
 31
0.0
  0
LINE
  5
1B7
330
1F
100
AcDbEntity
  8
1
  6
CONTINUOUS
 62
     3
100
AcDbLine
 10
28001.41543890437
 20
6098.661649302124
 30
0.0
 11
28022.13131991354
 21
6066.770159736064
 31
0.0
  0
LINE
  5
1B8
330
1F
100
AcDbEntity
  8
1
  6
CONTINUOUS
 62
     3
100
AcDbLine
 10
27971.60493354458
 20
6123.668260002351
 30
0.0
 11
28001.41543890437
 21
6098.661649302124
 31
0.0
  0
LINE
  5
1B9
330
1F
100
AcDbEntity
  8
1
  6
CONTINUOUS
 62
     3
100
AcDbLine
 10
27805.74335335321
 20
6199.223699601781
 30
0.0
 11
27971.60493354458
 21
6123.668260002351
 31
0.0
  0
LINE
  5
1BA
330
1F
100
AcDbEntity
  8
1
  6
CONTINUOUS
 62
     3
100
AcDbLine
 10
28081.26941432422
 20
3997.171336841196
 30
0.0
 11
28056.0672622346
 21
3869.663872458602
 31
0.0
  0
LINE
  5
1BB
330
1F
100
AcDbEntity
  8
1
  6
CONTINUOUS
 62
     3
100
AcDbLine
 10
28206.0672622346
 20
4019.663872458601
 30
0.0
 11
28081.26941432422
 21
3997.171336841196
 31
0.0
  0
LINE
  5
1BC
330
1F
100
AcDbEntity
  8
1
  6
CONTINUOUS
 62
     2
100
AcDbLine
 10
24206.06726223459
 20
7569.663872458599
 30
0.0
 11
24406.06726223459
 21
7769.663872458601
 31
0.0
  0
LINE
  5
1BD
330
1F
100
AcDbEntity
  8
1
  6
CONTINUOUS
 62
     2
100
AcDbLine
 10
23056.06726223459
 20
7569.663872458601
 30
0.0
 11
24206.06726223459
 21
7569.663872458599
 31
0.0
  0
LINE
  5
1BE
330
1F
100
AcDbEntity
  8
1
  6
CONTINUOUS
 62
     2
100
AcDbLine
 10
22806.06726223459
 20
4119.6638724586
 30
0.0
 11
22806.06726223459
 21
6969.6638724586
 31
0.0
  0
LINE
  5
1BF
330
1F
100
AcDbEntity
  8
1
  6
CONTINUOUS
 62
     2
100
AcDbLine
 10
26706.0672622346
 20
7769.6638724586
 30
0.0
 11
24406.06726223459
 21
7769.663872458601
 31
0.0
  0
LINE
  5
1C0
330
1F
100
AcDbEntity
  8
1
  6
CONTINUOUS
 62
     2
100
AcDbLine
 10
26706.0672622346
 20
7769.6638724586
 30
0.0
 11
28206.0672622346
 21
6869.663872458601
 31
0.0
  0
LINE
  5
1C1
330
1F
100
AcDbEntity
  8
1
  6
CONTINUOUS
 62
     2
100
AcDbLine
 10
22806.06726223459
 20
2119.663872458601
 30
0.0
 11
22726.06726223459
 21
2119.663872458601
 31
0.0
  0
LINE
  5
1C2
330
1F
100
AcDbEntity
  8
1
  6
CONTINUOUS
 62
     2
100
AcDbLine
 10
22806.06726223459
 20
4119.6638724586
 30
0.0
 11
22806.06726223459
 21
2119.663872458601
 31
0.0
  0
LINE
  5
1C3
330
1F
100
AcDbEntity
  8
1
  6
CONTINUOUS
 62
     2
100
AcDbLine
 10
28206.0672622346
 20
4119.663872458601
 30
0.0
 11
28206.0672622346
 21
6869.663872458601
 31
0.0
  0
LINE
  5
1C4
330
1F
100
AcDbEntity
  8
1
  6
CONTINUOUS
 62
     3
100
AcDbLine
 10
28056.0672622346
 20
3869.663872458602
 30
0.0
 11
28056.0672622346
 21
4019.663872458601
 31
0.0
  0
LINE
  5
1C5
330
1F
100
AcDbEntity
  8
1
  6
CONTINUOUS
 62
     3
100
AcDbLine
 10
28056.0672622346
 20
3869.663872458602
 30
0.0
 11
28206.0672622346
 21
3869.6638724586
 31
0.0
  0
LINE
  5
1C6
330
1F
100
AcDbEntity
  8
1
  6
CONTINUOUS
 62
     3
100
AcDbLine
 10
28206.0672622346
 20
4019.663872458601
 30
0.0
 11
28056.0672622346
 21
4019.663872458601
 31
0.0
  0
LINE
  5
1C7
330
1F
100
AcDbEntity
  8
1
  6
CONTINUOUS
 62
     2
100
AcDbLine
 10
28206.0672622346
 20
2169.6638724586
 30
0.0
 11
28206.0672622346
 21
4019.663872458601
 31
0.0
  0
LINE
  5
1C8
330
1F
100
AcDbEntity
  8
1
  6
CONTINUOUS
 62
     2
100
AcDbLine
 10
22806.06726223459
 20
6969.6638724586
 30
0.0
 11
23056.06726223459
 21
7569.663872458601
 31
0.0
  0
ARC
  5
1C9
330
1F
100
AcDbEntity
  8
1
  6
CONTINUOUS
 62
     3
100
AcDbCircle
 10
26908.80839262671
 20
3842.276330474634
 30
0.0
 40
304.600678921845
100
AcDbArc
 50
326.6907550834934
 51
334.565934598965
  0
ARC
  5
1CA
330
1F
100
AcDbEntity
  8
1
  6
CONTINUOUS
 62
     3
100
AcDbCircle
 10
26908.80839262671
 20
3842.276330474634
 30
0.0
 40
304.6006789218458
100
AcDbArc
 50
334.565934598965
 51
189.4202064046805
  0
ARC
  5
1CB
330
1F
100
AcDbEntity
  8
1
  6
CONTINUOUS
 62
     3
100
AcDbCircle
 10
24353.96022039211
 20
4201.651923454248
 30
0.0
 40
304.6006789218246
100
AcDbArc
 50
137.9005632926439
 51
177.1079993276629
  0
ARC
  5
1CC
330
1F
100
AcDbEntity
  8
1
  6
CONTINUOUS
 62
     3
100
AcDbCircle
 10
24353.96022039211
 20
4201.651923454248
 30
0.0
 40
304.6006789218247
100
AcDbArc
 50
326.6258121099823
 51
347.7508465485777
  0
ARC
  5
1CD
330
1F
100
AcDbEntity
  8
1
  6
CONTINUOUS
 62
     3
100
AcDbCircle
 10
24353.96022039211
 20
4201.651923454248
 30
0.0
 40
304.6006789218292
100
AcDbArc
 50
58.51702071503528
 51
116.6726399080094
  0
ARC
  5
1CE
330
1F
100
AcDbEntity
  8
1
  6
CONTINUOUS
 62
     3
100
AcDbCircle
 10
24353.96022039211
 20
4201.651923454248
 30
0.0
 40
197.4586693508329
100
AcDbArc
 50
60.34889061863882
 51
142.1680688368634
  0
ARC
  5
1CF
330
1F
100
AcDbEntity
  8
1
  6
CONTINUOUS
 62
     3
100
AcDbCircle
 10
24353.96022039211
 20
4201.651923454248
 30
0.0
 40
197.45866935083
100
AcDbArc
 50
310.6200351707268
 51
351.9930705018219
  0
ARC
  5
1D0
330
1F
100
AcDbEntity
  8
1
  6
CONTINUOUS
 62
     3
100
AcDbCircle
 10
24353.96022039211
 20
4201.651923454248
 30
0.0
 40
197.45866935083
100
AcDbArc
 50
351.9930705018219
 51
40.2217941445511
  0
ARC
  5
1D1
330
1F
100
AcDbEntity
  8
1
  6
CONTINUOUS
 62
     3
100
AcDbCircle
 10
24353.96022039211
 20
4201.651923454248
 30
0.0
 40
304.6006789218285
100
AcDbArc
 50
347.7508465485777
 51
45.32517884950083
  0
ARC
  5
1D2
330
1F
100
AcDbEntity
  8
1
  6
CONTINUOUS
 62
     3
100
AcDbCircle
 10
24353.96022039211
 20
4201.651923454248
 30
0.0
 40
74.99999999999652
100
AcDbArc
 50
351.993070501822
 51
29.07440594766318
  0
ARC
  5
1D3
330
1F
100
AcDbEntity
  8
1
  6
CONTINUOUS
 62
     3
100
AcDbCircle
 10
24353.96022039211
 20
4201.651923454248
 30
0.0
 40
75.00000000000121
100
AcDbArc
 50
251.8880643995229
 51
351.993070501822
  0
ARC
  5
1D4
330
1F
100
AcDbEntity
  8
1
  6
CONTINUOUS
 62
     3
100
AcDbCircle
 10
24353.96022039211
 20
4201.651923454248
 30
0.0
 40
75.00000000000053
100
AcDbArc
 50
76.96397011052339
 51
204.3532875732833
  0
ARC
  5
1D5
330
1F
100
AcDbEntity
  8
1
  6
CONTINUOUS
 62
     3
100
AcDbCircle
 10
24353.96022039211
 20
4201.651923454248
 30
0.0
 40
304.6006789218335
100
AcDbArc
 50
177.1079993276629
 51
197.374187890019
  0
ARC
  5
1D6
330
1F
100
AcDbEntity
  8
1
  6
CONTINUOUS
 62
     3
100
AcDbCircle
 10
26908.80839262671
 20
3842.276330474634
 30
0.0
 40
304.6006789218222
100
AcDbArc
 50
189.4202064046805
 51
197.3092449165058
  0
ARC
  5
1D7
330
1F
100
AcDbEntity
  8
1
  6
CONTINUOUS
 62
     3
100
AcDbCircle
 10
26908.80839262671
 20
3842.276330474634
 30
0.0
 40
197.4586693508301
100
AcDbArc
 50
351.9930705018217
 51
213.2594102103509
  0
ARC
  5
1D8
330
1F
100
AcDbEntity
  8
1
  6
CONTINUOUS
 62
     3
100
AcDbCircle
 10
26908.80839262671
 20
3842.276330474634
 30
0.0
 40
197.4586693508335
100
AcDbArc
 50
310.7405897896473
 51
351.9930705018217
  0
ARC
  5
1D9
330
1F
100
AcDbEntity
  8
1
  6
CONTINUOUS
 62
     3
100
AcDbCircle
 10
24250.63640452745
 20
6220.560768256662
 30
0.0
 40
353.3669569667375
100
AcDbArc
 50
330.7004422226555
 51
351.9494676193341
  0
ARC
  5
1DA
330
1F
100
AcDbEntity
  8
1
  6
CONTINUOUS
 62
     3
100
AcDbCircle
 10
24250.63640452745
 20
6220.560768256662
 30
0.0
 40
246.366956966744
100
AcDbArc
 50
320.6003042590911
 51
351.9494676193344
  0
ARC
  5
1DB
330
1F
100
AcDbEntity
  8
1
  6
CONTINUOUS
 62
     3
100
AcDbCircle
 10
24250.63640452745
 20
6220.560768256662
 30
0.0
 40
246.3669569667373
100
AcDbArc
 50
351.9494676193344
 51
203.3996957409077
  0
ARC
  5
1DC
330
1F
100
AcDbEntity
  8
1
  6
CONTINUOUS
 62
     3
100
AcDbCircle
 10
27154.87598600564
 20
5809.784183750332
 30
0.0
 40
246.3669569667336
100
AcDbArc
 50
351.9494676193344
 51
202.6974655372609
  0
ARC
  5
1DD
330
1F
100
AcDbEntity
  8
1
  6
CONTINUOUS
 62
     3
100
AcDbCircle
 10
24250.63640452745
 20
6220.560768256662
 30
0.0
 40
353.366956966742
100
AcDbArc
 50
351.9494676193341
 51
193.2995577773432
  0
ARC
  5
1DE
330
1F
100
AcDbEntity
  8
1
  6
CONTINUOUS
 62
     3
100
AcDbCircle
 10
27154.87598599342
 20
5809.784183752064
 30
0.0
 40
353.3669569667434
100
AcDbArc
 50
331.1499579342901
 51
179.1797201808246
  0
ARC
  5
1DF
330
1F
100
AcDbEntity
  8
1
  6
CONTINUOUS
 62
     3
100
AcDbCircle
 10
27154.87598599342
 20
5809.784183752064
 30
0.0
 40
353.3669569667547
100
AcDbArc
 50
179.1797201808246
 51
192.8500420657109
  0
ARC
  5
1E0
330
1F
100
AcDbEntity
  8
1
  6
CONTINUOUS
 62
     3
100
AcDbCircle
 10
27154.87598600564
 20
5809.784183750332
 30
0.0
 40
246.3669569667281
100
AcDbArc
 50
321.3025344627347
 51
351.9494676193344
  0
CIRCLE
  5
1E1
330
1F
100
AcDbEntity
  8
1
  6
CONTINUOUS
 62
     3
100
AcDbCircle
 10
26908.80839262671
 20
3842.276330474634
 30
0.0
 40
74.9999999999967
  0
CIRCLE
  5
1E2
330
1F
100
AcDbEntity
  8
1
  6
CONTINUOUS
 62
     3
100
AcDbCircle
 10
24250.63640452745
 20
6220.560768256662
 30
0.0
 40
46.83420850721334
  0
CIRCLE
  5
1E3
330
1F
100
AcDbEntity
  8
1
  6
CONTINUOUS
 62
     3
100
AcDbCircle
 10
27154.87598599342
 20
5809.784183752064
 30
0.0
 40
46.8342085072325
  0
ENDSEC
  0
SECTION
  2
OBJECTS
  0
DICTIONARY
  5
C
330
0
100
AcDbDictionary
  3
ACAD_GROUP
350
D
  3
ACAD_LAYOUT
350
1A
  3
ACAD_MLEADERSTYLE
350
205
  3
ACAD_MLINESTYLE
350
17
  3
ACAD_PLOTSETTINGS
350
19
  3
ACAD_TABLESTYLE
350
204
  3
ACAD_VISUALSTYLE
350
2A
  3
ACDBHEADERROUNDTRIPXREC
350
1E4
  0
DICTIONARY
  5
D
102
{ACAD_REACTORS
330
C
102
}
330
C
100
AcDbDictionary
  0
DICTIONARY
  5
1A
102
{ACAD_REACTORS
330
C
102
}
330
C
100
AcDbDictionary
  0
DICTIONARY
  5
205
102
{ACAD_REACTORS
330
C
102
}
330
C
100
AcDbDictionary
  0
DICTIONARY
  5
17
102
{ACAD_REACTORS
330
C
102
}
330
C
100
AcDbDictionary
  3
STANDARD
350
18
  0
DICTIONARY
  5
19
102
{ACAD_REACTORS
330
C
102
}
330
C
100
AcDbDictionary
  0
DICTIONARY
  5
204
102
{ACAD_REACTORS
330
C
102
}
330
C
100
AcDbDictionary
  0
DICTIONARY
  5
2A
102
{ACAD_REACTORS
330
C
102
}
330
C
100
AcDbDictionary
  3
2DWIREFRAME
350
2F
  3
3D_HIDDEN
350
31
  3
3DWIREFRAME
350
30
  3
BASIC
350
32
  3
BRIGHTEN
350
36
  3
COLORCHANGE
350
3A
  3
CONCEPTUAL
350
34
  3
DIM
350
35
  3
FACEPATTERN
350
39
  3
FLAT
350
2B
  3
FLATWITHEDGES
350
2C
  3
GOURAUD
350
2D
  3
GOURAUDWITHEDGES
350
2E
  3
LINEPATTERN
350
38
  3
REALISTIC
350
33
  3
THICKEN
350
37
  0
DICTIONARY
  5
1E4
102
{ACAD_REACTORS
330
C
102
}
330
C
100
AcDbDictionary
  3
CEPSNTYPE
350
1ED
  3
DIMSTYLEDATA
350
203
  3
FINGERPRINTGUID
350
1EE
  3
HYPERLINKBASE
350
1E7
  3
INSUNITS
350
1EC
  3
LAYOUTDICT
350
1E9
  3
LWETCUNION
350
1EB
  3
PLOTSETDICT
350
1EA
  3
PSVPSCALE
350
1F0
  3
PUCSBASE
350
1F3
  3
PUCSORGBACK
350
1F9
  3
PUCSORGBOTTOM
350
1F5
  3
PUCSORGFRONT
350
1F8
  3
PUCSORGLEFT
350
1F6
  3
PUCSORGRIGHT
350
1F7
  3
PUCSORGTOP
350
1F4
  3
PUCSORTHOREF
350
1F1
  3
PUCSORTHOVIEW
350
1F2
  3
STYLESHEET
350
1E8
  3
TSTACKALIGN
350
1E5
  3
TSTACKSIZE
350
1E6
  3
UCSBASE
350
1FC
  3
UCSORGBACK
350
202
  3
UCSORGBOTTOM
350
1FE
  3
UCSORGFRONT
350
201
  3
UCSORGLEFT
350
1FF
  3
UCSORGRIGHT
350
200
  3
UCSORGTOP
350
1FD
  3
UCSORTHOREF
350
1FA
  3
UCSORTHOVIEW
350
1FB
  3
VERSIONGUID
350
1EF
  0
MLINESTYLE
  5
18
102
{ACAD_REACTORS
330
17
102
}
330
17
100
AcDbMlineStyle
  2
Standard
 70
     0
  3

 62
   256
 51
90.0
 52
90.0
 71
     2
 49
0.5
 62
   256
  6
BYLAYER
 49
-0.5
 62
   256
  6
BYLAYER
  0
VISUALSTYLE
  5
2F
102
{ACAD_REACTORS
330
2A
102
}
330
2A
100
AcDbVisualStyle
  2
2dWireframe
 70
     4
 71
     0
 72
     2
 73
     0
 90
        0
 40
-0.6
 41
-30.0
 62
     5
 63
     7
 74
     1
 91
        4
 64
     7
 65
   257
 75
     1
175
     1
 42
1.0
 92
        0
 66
   257
 43
1.0
 76
     1
 77
     6
 78
     2
 67
     7
 79
     5
170
     0
171
     0
290
     0
174
     0
 93
        1
 44
0.0
173
     0
291
     0
 45
0.0
1001
ACAD
1000
AcDbSavedByObjectVersion
1070
     0
  0
VISUALSTYLE
  5
31
102
{ACAD_REACTORS
330
2A
102
}
330
2A
100
AcDbVisualStyle
  2
3D Hidden
 70
     6
 71
     1
 72
     2
 73
     2
 90
        0
 40
-0.6
 41
-30.0
 62
     5
 63
     7
 74
     2
 91
        2
 64
     7
 65
   257
 75
     2
175
     1
 42
40.0
 92
        0
 66
   257
 43
1.0
 76
     1
 77
     6
 78
     2
 67
     7
 79
     3
170
     0
171
     0
290
     0
174
     0
 93
        1
 44
0.0
173
     0
291
     0
 45
0.0
1001
ACAD
1000
AcDbSavedByObjectVersion
1070
     0
  0
VISUALSTYLE
  5
30
102
{ACAD_REACTORS
330
2A
102
}
330
2A
100
AcDbVisualStyle
  2
3dWireframe
 70
     5
 71
     0
 72
     2
 73
     0
 90
        0
 40
-0.6
 41
-30.0
 62
     5
 63
     7
 74
     1
 91
        4
 64
     7
 65
   257
 75
     1
175
     1
 42
1.0
 92
        0
 66
   257
 43
1.0
 76
     1
 77
     6
 78
     2
 67
     7
 79
     5
170
     0
171
     0
290
     0
174
     0
 93
        1
 44
0.0
173
     0
291
     0
 45
0.0
1001
ACAD
1000
AcDbSavedByObjectVersion
1070
     0
  0
VISUALSTYLE
  5
32
102
{ACAD_REACTORS
330
2A
102
}
330
2A
100
AcDbVisualStyle
  2
Basic
 70
     7
 71
     1
 72
     0
 73
     1
 90
        0
 40
-0.6
 41
-30.0
 62
     5
 63
     7
 74
     0
 91
        4
 64
     7
 65
   257
 75
     1
175
     1
 42
1.0
 92
        8
 66
     7
 43
1.0
 76
     1
 77
     6
 78
     2
 67
     7
 79
     5
170
     0
171
     0
290
     0
174
     0
 93
        1
 44
0.0
173
     0
291
     1
 45
0.0
1001
ACAD
1000
AcDbSavedByObjectVersion
1070
     0
  0
VISUALSTYLE
  5
36
102
{ACAD_REACTORS
330
2A
102
}
330
2A
100
AcDbVisualStyle
  2
Brighten
 70
    12
 71
     2
 72
     2
 73
     0
 90
        0
 40
-0.6
 41
-30.0
 62
     5
 63
     7
 74
     1
 91
        4
 64
     7
 65
   257
 75
     1
175
     1
 42
1.0
 92
        8
 66
     7
 43
1.0
 76
     1
 77
     6
 78
     2
 67
     7
 79
     5
170
     0
171
     0
290
     0
174
     0
 93
        1
 44
50.0
173
     0
291
     1
 45
0.0
1001
ACAD
1000
AcDbSavedByObjectVersion
1070
     0
  0
VISUALSTYLE
  5
3A
102
{ACAD_REACTORS
330
2A
102
}
330
2A
100
AcDbVisualStyle
  2
ColorChange
 70
    16
 71
     2
 72
     2
 73
     3
 90
        0
 40
-0.6
 41
-30.0
 62
     5
 63
     8
 74
     1
 91
        4
 64
     7
 65
   257
 75
     1
175
     1
 42
1.0
 92
        8
 66
     8
 43
1.0
 76
     1
 77
     6
 78
     2
 67
     7
 79
     5
170
     0
171
     0
290
     0
174
     0
 93
        1
 44
0.0
173
     0
291
     1
 45
0.0
1001
ACAD
1000
AcDbSavedByObjectVersion
1070
     0
  0
VISUALSTYLE
  5
34
102
{ACAD_REACTORS
330
2A
102
}
330
2A
100
AcDbVisualStyle
  2
Conceptual
 70
     9
 71
     3
 72
     2
 73
     0
 90
        0
 40
-0.6
 41
-30.0
 62
     5
 63
     7
 74
     2
 91
        2
 64
     7
 65
   257
 75
     1
175
     1
 42
40.0
 92
        8
 66
     7
 43
1.0
 76
     1
 77
     6
 78
     2
 67
     7
 79
     3
170
     0
171
     0
290
     0
174
     0
 93
        1
 44
0.0
173
     0
291
     0
 45
0.0
1001
ACAD
1000
AcDbSavedByObjectVersion
1070
     0
  0
VISUALSTYLE
  5
35
102
{ACAD_REACTORS
330
2A
102
}
330
2A
100
AcDbVisualStyle
  2
Dim
 70
    11
 71
     2
 72
     2
 73
     0
 90
        0
 40
-0.6
 41
-30.0
 62
     5
 63
     7
 74
     1
 91
        4
 64
     7
 65
   257
 75
     1
175
     1
 42
1.0
 92
        8
 66
     7
 43
1.0
 76
     1
 77
     6
 78
     2
 67
     7
 79
     5
170
     0
171
     0
290
     0
174
     0
 93
        1
 44
-50.0
173
     0
291
     1
 45
0.0
1001
ACAD
1000
AcDbSavedByObjectVersion
1070
     0
  0
VISUALSTYLE
  5
39
102
{ACAD_REACTORS
330
2A
102
}
330
2A
100
AcDbVisualStyle
  2
Facepattern
 70
    15
 71
     2
 72
     2
 73
     0
 90
        0
 40
-0.6
 41
-30.0
 62
     5
 63
     7
 74
     1
 91
        4
 64
     7
 65
   257
 75
     1
175
     1
 42
1.0
 92
        8
 66
     7
 43
1.0
 76
     1
 77
     6
 78
     2
 67
     7
 79
     5
170
     0
171
     0
290
     0
174
     0
 93
        1
 44
0.0
173
     0
291
     1
 45
0.0
1001
ACAD
1000
AcDbSavedByObjectVersion
1070
     0
  0
VISUALSTYLE
  5
2B
102
{ACAD_REACTORS
330
2A
102
}
330
2A
100
AcDbVisualStyle
  2
Flat
 70
     0
 71
     2
 72
     1
 73
     1
 90
        2
 40
-0.6
 41
30.0
 62
     5
 63
     7
 74
     0
 91
        4
 64
     7
 65
   257
 75
     1
175
     1
 42
1.0
 92
        8
 66
     7
 43
1.0
 76
     1
 77
     6
 78
     2
 67
     7
 79
     5
170
     0
171
     0
290
     0
174
     0
 93
       13
 44
0.0
173
     0
291
     1
 45
0.0
1001
ACAD
1000
AcDbSavedByObjectVersion
1070
     0
  0
VISUALSTYLE
  5
2C
102
{ACAD_REACTORS
330
2A
102
}
330
2A
100
AcDbVisualStyle
  2
FlatWithEdges
 70
     1
 71
     2
 72
     1
 73
     1
 90
        2
 40
-0.6
 41
30.0
 62
     5
 63
     7
 74
     1
 91
        4
 64
     7
 65
   257
 75
     1
175
     1
 42
1.0
 92
        0
 66
   257
 43
1.0
 76
     1
 77
     6
 78
     2
 67
     7
 79
     5
170
     0
171
     0
290
     0
174
     0
 93
       13
 44
0.0
173
     0
291
     1
 45
0.0
1001
ACAD
1000
AcDbSavedByObjectVersion
1070
     0
  0
VISUALSTYLE
  5
2D
102
{ACAD_REACTORS
330
2A
102
}
330
2A
100
AcDbVisualStyle
  2
Gouraud
 70
     2
 71
     2
 72
     2
 73
     1
 90
        2
 40
-0.6
 41
30.0
 62
     5
 63
     7
 74
     0
 91
        4
 64
     7
 65
   257
 75
     1
175
     1
 42
1.0
 92
        0
 66
     7
 43
1.0
 76
     1
 77
     6
 78
     2
 67
     7
 79
     5
170
     0
171
     0
290
     0
174
     0
 93
       13
 44
0.0
173
     0
291
     1
 45
0.0
1001
ACAD
1000
AcDbSavedByObjectVersion
1070
     0
  0
VISUALSTYLE
  5
2E
102
{ACAD_REACTORS
330
2A
102
}
330
2A
100
AcDbVisualStyle
  2
GouraudWithEdges
 70
     3
 71
     2
 72
     2
 73
     1
 90
        2
 40
-0.6
 41
30.0
 62
     5
 63
     7
 74
     1
 91
        4
 64
     7
 65
   257
 75
     1
175
     1
 42
1.0
 92
        0
 66
   257
 43
1.0
 76
     1
 77
     6
 78
     2
 67
     7
 79
     5
170
     0
171
     0
290
     0
174
     0
 93
       13
 44
0.0
173
     0
291
     1
 45
0.0
1001
ACAD
1000
AcDbSavedByObjectVersion
1070
     0
  0
VISUALSTYLE
  5
38
102
{ACAD_REACTORS
330
2A
102
}
330
2A
100
AcDbVisualStyle
  2
Linepattern
 70
    14
 71
     2
 72
     2
 73
     0
 90
        0
 40
-0.6
 41
-30.0
 62
     5
 63
     7
 74
     1
 91
        4
 64
     7
 65
   257
 75
     7
175
     7
 42
1.0
 92
        8
 66
     7
 43
1.0
 76
     1
 77
     6
 78
     2
 67
     7
 79
     5
170
     0
171
     0
290
     0
174
     0
 93
        1
 44
0.0
173
     0
291
     1
 45
0.0
1001
ACAD
1000
AcDbSavedByObjectVersion
1070
     0
  0
VISUALSTYLE
  5
33
102
{ACAD_REACTORS
330
2A
102
}
330
2A
100
AcDbVisualStyle
  2
Realistic
 70
     8
 71
     2
 72
     2
 73
     0
 90
        0
 40
-0.6
 41
-30.0
 62
     5
 63
     7
 74
     1
 91
        0
 64
     7
 65
   257
 75
     1
175
     1
 42
1.0
 92
        8
 66
     8
 43
1.0
 76
     1
 77
     6
 78
     2
 67
     7
 79
     5
170
     0
171
     0
290
     0
174
     0
 93
       13
 44
0.0
173
     0
291
     0
 45
0.0
1001
ACAD
1000
AcDbSavedByObjectVersion
1070
     0
  0
VISUALSTYLE
  5
37
102
{ACAD_REACTORS
330
2A
102
}
330
2A
100
AcDbVisualStyle
  2
Thicken
 70
    13
 71
     2
 72
     2
 73
     0
 90
        0
 40
-0.6
 41
-30.0
 62
     5
 63
     7
 74
     1
 91
        4
 64
     7
 65
   257
 75
     1
175
     1
 42
1.0
 92
       12
 66
     7
 43
1.0
 76
     1
 77
     6
 78
     2
 67
     7
 79
     5
170
     0
171
     0
290
     0
174
     0
 93
        1
 44
0.0
173
     0
291
     1
 45
0.0
1001
ACAD
1000
AcDbSavedByObjectVersion
1070
     0
  0
XRECORD
  5
1ED
102
{ACAD_REACTORS
330
1E4
102
}
330
1E4
100
AcDbXrecord
 90
        0
  0
XRECORD
  5
203
102
{ACAD_REACTORS
330
1E4
102
}
330
1E4
100
AcDbXrecord
1000
DSTYLE
1002
{
1070
   171
 70
     2
1070
   143
 40
25.4
1070
   274
 70
     2
1070
    41
 40
0.18
1070
   141
 40
0.09
1070
   271
 70
     4
1070
    43
 40
0.38
1070
   278
 70
    46
1070
    44
 40
0.18
1070
    42
 40
0.0625
1070
   147
 40
0.09
1070
    77
 70
     0
1070
   272
 70
     4
1070
    73
 70
     1
1070
   172
 70
     0
1070
    74
 70
     1
1070
   283
 70
     1
1070
   340
340
11
1070
   140
 40
0.18
1070
   284
 70
     0
1070
    78
 70
     0
1002
}
  0
XRECORD
  5
1EE
102
{ACAD_REACTORS
330
1E4
102
}
330
1E4
100
AcDbXrecord
  1
{BE08B0DB-93E9-4D47-8CA6-8F8D848AB475}
  0
XRECORD
  5
1E7
102
{ACAD_REACTORS
330
1E4
102
}
330
1E4
100
AcDbXrecord
  1

  0
XRECORD
  5
1EC
102
{ACAD_REACTORS
330
1E4
102
}
330
1E4
100
AcDbXrecord
 90
        1
  0
XRECORD
  5
1E9
102
{ACAD_REACTORS
330
1E4
102
}
330
1E4
100
AcDbXrecord
340
1A
  0
XRECORD
  5
1EB
102
{ACAD_REACTORS
330
1E4
102
}
330
1E4
100
AcDbXrecord
 90
    10781
  0
XRECORD
  5
1EA
102
{ACAD_REACTORS
330
1E4
102
}
330
1E4
100
AcDbXrecord
340
19
  0
XRECORD
  5
1F0
102
{ACAD_REACTORS
330
1E4
102
}
330
1E4
100
AcDbXrecord
 40
0.0
  0
XRECORD
  5
1F3
102
{ACAD_REACTORS
330
1E4
102
}
330
1E4
100
AcDbXrecord
340
0
  0
XRECORD
  5
1F9
102
{ACAD_REACTORS
330
1E4
102
}
330
1E4
100
AcDbXrecord
 10
0.0
 20
0.0
 30
0.0
  0
XRECORD
  5
1F5
102
{ACAD_REACTORS
330
1E4
102
}
330
1E4
100
AcDbXrecord
 10
0.0
 20
0.0
 30
0.0
  0
XRECORD
  5
1F8
102
{ACAD_REACTORS
330
1E4
102
}
330
1E4
100
AcDbXrecord
 10
0.0
 20
0.0
 30
0.0
  0
XRECORD
  5
1F6
102
{ACAD_REACTORS
330
1E4
102
}
330
1E4
100
AcDbXrecord
 10
0.0
 20
0.0
 30
0.0
  0
XRECORD
  5
1F7
102
{ACAD_REACTORS
330
1E4
102
}
330
1E4
100
AcDbXrecord
 10
0.0
 20
0.0
 30
0.0
  0
XRECORD
  5
1F4
102
{ACAD_REACTORS
330
1E4
102
}
330
1E4
100
AcDbXrecord
 10
0.0
 20
0.0
 30
0.0
  0
XRECORD
  5
1F1
102
{ACAD_REACTORS
330
1E4
102
}
330
1E4
100
AcDbXrecord
340
0
  0
XRECORD
  5
1F2
102
{ACAD_REACTORS
330
1E4
102
}
330
1E4
100
AcDbXrecord
 70
     0
  0
XRECORD
  5
1E8
102
{ACAD_REACTORS
330
1E4
102
}
330
1E4
100
AcDbXrecord
  1

  0
XRECORD
  5
1E5
102
{ACAD_REACTORS
330
1E4
102
}
330
1E4
100
AcDbXrecord
 90
        1
  0
XRECORD
  5
1E6
102
{ACAD_REACTORS
330
1E4
102
}
330
1E4
100
AcDbXrecord
 90
       70
  0
XRECORD
  5
1FC
102
{ACAD_REACTORS
330
1E4
102
}
330
1E4
100
AcDbXrecord
340
0
  0
XRECORD
  5
202
102
{ACAD_REACTORS
330
1E4
102
}
330
1E4
100
AcDbXrecord
 10
0.0
 20
0.0
 30
0.0
  0
XRECORD
  5
1FE
102
{ACAD_REACTORS
330
1E4
102
}
330
1E4
100
AcDbXrecord
 10
0.0
 20
0.0
 30
0.0
  0
XRECORD
  5
201
102
{ACAD_REACTORS
330
1E4
102
}
330
1E4
100
AcDbXrecord
 10
0.0
 20
0.0
 30
0.0
  0
XRECORD
  5
1FF
102
{ACAD_REACTORS
330
1E4
102
}
330
1E4
100
AcDbXrecord
 10
0.0
 20
0.0
 30
0.0
  0
XRECORD
  5
200
102
{ACAD_REACTORS
330
1E4
102
}
330
1E4
100
AcDbXrecord
 10
0.0
 20
0.0
 30
0.0
  0
XRECORD
  5
1FD
102
{ACAD_REACTORS
330
1E4
102
}
330
1E4
100
AcDbXrecord
 10
0.0
 20
0.0
 30
0.0
  0
XRECORD
  5
1FA
102
{ACAD_REACTORS
330
1E4
102
}
330
1E4
100
AcDbXrecord
340
0
  0
XRECORD
  5
1FB
102
{ACAD_REACTORS
330
1E4
102
}
330
1E4
100
AcDbXrecord
 70
     0
  0
XRECORD
  5
1EF
102
{ACAD_REACTORS
330
1E4
102
}
330
1E4
100
AcDbXrecord
  1
{FAEB1C32-E019-11D5-929B-00C0DF256EC4}
  0
ENDSEC
  0
EOF
